Oops, an error
Loading. Please wait.

In Memory Tab

1,121 views 1 this week
no commentswrite comment
1 2 3 4 5
please rate
add to favorites
launch autoscroll
font size
0
reset
how to read this tab
guitar tuner
Autoscroll
slow
fast
+/-
esc
set tempo
stop
Help us to improve Ultimate-Guitar.com Take our survey!
×
figure out order of stuff by listening to song

tune down 1/2 step
:---------------------------------------------
:--------------------------------------1-3~--- (harmony in italics)
:----0------------------0--------0-2-4-2-4~---
:---4-----5----2-4/5---4-----5---2-4-5--------
:--4-----5----2-------4-----5---2-------------
:-2-----3----0-------2-----3---0--------------

:--------------------------------------
:---1-0--1h3---0-0h1-------------------
:----------------------4-5-2-4-5-2-2h4-
:--2-2-2----2-2-2---2-4-4-4---4-4------
:-3-----3----3-------2------2-----2----
:--------------------------------------

right before heaviness
:---------------------
:---0-----------------
:----2----------0--0--
:--4---5-4----3----3-- volume swell
:-0----------3-3---3--
:-----------1------1--

:----------------------
:------------------3---
:-4-44-5-55-4---24-1---
:-2-22-3-33-2---02-1---

verse
:----------------------------------------------------------
:-------------3------------------------3-------------------
:-2--4-5-4-24-1--4-5-4-54-2---4-5-4-24-1-4-44-5-55-4---54--
:-0--2-3-2-02-1--2-3-2-32-0---2-3-2-02-1-2-22-3-33-2---32--

lead verse
:-------------------
:-5----------------- basically random bending and alternating with b 
:-3b4--------------- string
:-------------------
:-------------------
:-------------------

chorus
gtr.1
:--------------------------
:-2--10--9--5-------5-4-2--
:-0---8--7--3--3----3-2-0--
:--------------1-----------

gtr.2 (somethin like this)
:----------------------------------------------------------
:-9h10--10p7-10-9h10-9h10p9--9h10--10p7-10-9h10-10h12/14~--
:-----00----0--0----0------10----00----0--0----0-----------
:----------------------------------------------------------

"And when theres nothing more..."
:--------------------------------------------------------------
:-0-0----1--0-0------------------------------------------------
:-2-2----2--2-2------------------------------------------------
:-2-2----2--2-2----5---------------------------3~--------------
:-0-0-00-0--0-0-00-3-----4--5-4-3----3---2---3-----3---2---2h3-
:---------------------00-2--3-2-1--11--11--11----11--11--11----

second solo riff
:--------------------------------------
:--------------------------------------
:-2h4--4--2-32-0-20---2h4--4---2-5-7---
:-0h2222-2---------3~-0h22220000-3-5---

weird ending:
:--0----------------------
:----0------0-------------
:-------------3---0-------
:-2-----------------------          -3----
:-2--------6----5---4/5-4- end with -3----
:-0--------4----3---2/3-2-          -1----

wop. there's some more nevermore for u fuckers. now go check out my band Ded End at www.dedend.20m.com goddammit.
Suggest correction
Give kudos to tab author, rate the tab!
1 2 3 4 5
comments
print report bad tab
guest
You may want to rate the tab now too:
select rating
Wanna post a correction for this tab? Suggest correction