Oops, an error
Loading. Please wait.

Inside Four Walls Tab

version 1
version 1

Whole song

Interactive

5,106 views 9 this week
1 commentread comment
1 2 3 4 5
please rate
add to favorites
launch autoscroll
font size
0
reset
how to read this tab
guitar tuner
Autoscroll
slow
fast
+/-
esc
set tempo
stop
Help us to improve Ultimate-Guitar.com Take our survey!
×
Nevermore
"Inside four Walls" from A Dead heart in a Dead world
Transcribed by Ola Englund goddamn@swipnet.se
Requests can be send to goddamn@swipnet.se


..  - palm mute          /  - slide up to
 \  - slide down to      ~  - vibrato
 h  - hammer on          b  - bend
 p  - pull off            Suffixes for bend
                          ph - pinch harmonic
                           f - full bend    h - half bend
r - release                 t - tap bend
X  - percussion mute       ~ - vibrato bend
() - ghost note, sustained note
                           n.h - natural harmonics


7-string tuned down 1/2 step

Intro Sequence

|---------------------------------------|
|---------------------------------------|
|---------------------------------------|
|---------------------------------------|
|---------------------------------------|
|---------------------------------------|
|-12-0-0-0-12-0-0-0-12-0-0-0-12-0-10-13-|



|---------------------------------------|
|---------------------------------------|
|---------------------------------------|
|---------------------------------------|
|---------------------------------------|
|---------------------------------------|
|-12-0-0-0-12-0-0-0-12-0-0-0-12-0-10-13-|
                                   . 

              p.h
|---------------------------------------|
|---------------------------------------|
|---------------------------------------|
|---------------------------------------|
|---------------------------------------|
|---------------------------------------|
|-12-10-12-10-12~---12-0-0-0-12-0-10-13-|


First Ending
|---------------------------------------|
|---------------------------------------|
|---------------------------------------|
|--------------------------------------:|
|---------------------------------------|
|---------------------------------------|
|-12-0-10-0-12-0-8-0-10-0-7-0-8-0-5-0---|


Second Ending
|------------------------------------------|
|------------------------------------------|
|------------------------------------------|
|------------------------------------------|
|-------------------------------------2----|
|-------------------------------------2----|
|-12-0-10-0-12-0-8-0-10-0-7-0-8-0-5-0-0----|



                             n.h-----|
|---------------------------------3-3--------------------------------|
|---------------------------------3-3--------------------------------|
|---------------------------------3-3--------------------------------|
|-5-5-5-----5--5------5--5-5--3-3-------5-5-5-5---5------5----5\----:|
|-5-5-5-----5--5------5--5-5--3-3-------5-5-5-5---5------5----5\-----|
|-4-4-4--4--4--4---4--4--4-4------------4-4-4-4---4--4-4-4--4-4\-----|
|-3-3-3--3--3--3---3--3--3-3------------3-3-3-3---3--3-3-3--3-3\-----|
         .         .                                 . .    .



Verse
|--------------------------------------------------------------------|
|--------------------------------------------------------------------|
|--------------------------------------------------------------------|
|-5-5-5-----5--5------5--5-5------------5-5-5-5---5------5----5\----:|x4
|-5-5-5-----5--5------5--5-5------------5-5-5-5---5------5----5\-----|
|-4-4-4--4--4--4---4--4--4-4------------4-4-4-4---4--4-4-4--4-4\-----|
|-3-3-3--3--3--3---3--3--3-3------------3-3-3-3---3--3-3-3--3-3\-----|




Chorus1 (2 guitars)You play 16th notes starting with a ascending/descending
note from the pattern before ex: 4555555555555555 then 5444444444444444

|-----------------|----------------|----------------|-----------------|
|-----------------|----------------|----------------|-----------------|
|-----------------|----------------|----------------|-----------------|
|-----------------|----------------|----------------|----------------:|
|-----------------|----------------|----------------|-----------------|
|-----------------|----------------|----------------|-----------------|
|-3444444444444444|4555555555555555|5444444444444444|4333333333333333-|
|                                                                     |
|                                                                     |  x2
|Ambient notes almost unhearable(neck pickup)                         |
|-12~-------------12~-------------------12~-------------11~-----------|
|-------------10--------------------10--------------10----------------|
|-9~-------9---------------------9---------------8--------------------|
|--------------------------------------------------------------------:|
|---------------------------------------------------------------------|
|---------------------------------------------------------------------|
|---------------------------------------------------------------------|




Bridge
|-------------------------------------------------------------------|
|-------------------------------------------------------------------|
|-------------------------------------------------------------------|
|------------------------------------------------------------------:| x2
|-------------------------------------------------------------0-----|
|-----5-7-5-----------5-7-5---8-------5-7-5---------------3-2-0-2---|
|-0-4-------4-7-4-0-4-------4---4-0-4-------4-7-4-5-2-4-0-1-0---0---|


Then Play verse



Chorus 2
|----------------------------------------------------------------|
|----------------------------------------------------------------|
|----------------------------------------------------------------|
|----------------------------------------------------------------|
|-6--6-x-x-7--7-x-x-6-6-x-x--------------------------------------|
|-4--4-x-x-4--4-x-x-4-4-x-x-7--7-x-x--4--4-x-x-4--4--4-4-4-4-4-4-|
|---------------------------5--5-x-x--2--2-x-x-2--2--2-2-2-2-2-2-|


|----------------------------------------------------------------|
|----------------------------------------------------------------|
|----------------------------------------------------------------|
|---------------------------------------------------------------:| x2
|-6--6-x-x-7--7-x-x-6-6-x-x-----6-----4----4----2-------2--4-----|
|-4--4-x-x-4--4-x-x-4-4-x-x-----4-----2----2----0-------0--2-----|
|----------------------------------------------------------------|




Solo I (played over verse) 1:51 
|-17~-----14--11----------11-14-17-14~---11-8----------8-11-14-11~-----|
|----------------13----13---------------------10----10-----------------|
|-------------------14---------------------------11--------------------|
|----------------------------------------------------------------------|
|----------------------------------------------------------------------|
|----------------------------------------------------------------------|
|----------------------------------------------------------------------|


|-8-5-----5~--------------------------------------------11-14-11-------|
|-----7---------8-7-6-7---------------------------10-13----------13----|
|-------8---------------8-5---------5-8------8-11-------------------14-|
|---------------------------7-4-4-7-----7-10---------------------------|
|----------------------------------------------------------------------|
|----------------------------------------------------------------------|
|----------------------------------------------------------------------|


|----------------------------------------------------------------------|
|-13-12-11-10----10-------------------------------16h19p16-------------|
|-------------13----11----------11-14-------14-17----------17----------|
|----------------------13-10-13-------13-16-------------------19-16-19-|
|----------------------------------------------------------------------|
|----------------------------------------------------------------------|
|----------------------------------------------------------------------|


|-------------20h23p20----------20h23-22b24~---------------------------|
|-------19h22----------22p19h22-------slow bend------------------------|
|-17-20----------------------------------------------------------------|
|----------------------------------------------------------------------|
|----------------------------------------------------------------------|
|----------------------------------------------------------------------|
|----------------------------------------------------------------------|

Play Verse
Play Chorus 2
Play intro



Solo II 

Part1 Rhythm
|------------------------------------------------|
|------------------------------------------------|
|------------------------------------------------|
|-5--5-5-5-6--6-x-x-5--5-------------------------|
|-3--3-3-3-3--3-x-x-3--3--5--5-5-5-6--6-x-x-5-5--|
|-------------------------3--3-3-3-3--3-x-x-3-3--|
|------------------------------------------------|
       . .                     . .

|------------------------------------------------|
|------------------------------------------------|
|------------------------------------------------|
|-----------------------------------------------:| x2
|-6--6-6-6-6--6-6-6-6--6------------5-----5-5--5-|
|-4--4-4-4-4--4-4-4-4--4--6--6-6-6--3-----3-3--3-|
|-------------------------4--4-4-4---------------|
                               . .

Part2 Rhythm
|--------------------------------------------------------------------|
|--------------------------------------------------------------------|
|--------------------------------------------------------------------|
|--------------------------------------------------------------------|
|--------------------------------------------------------------------|
|-5-5-5-5-5-5-5-5-5-5-5-5-5-5-5-5-3-3-3-3-3-3-3-3-3-3-3-3-3-3-3-3----|
|--------------------------------------------------------------------|


|--------------------------------------------------------------------|
|--------------------------------------------------------------------|
|--------------------------------------------------------------------|
|--------------------------------------------------------------------|
|--------------------------------------------------------------------|
|-1-1-1-1-1-1-1-1-1-1-1-1-1-1-1-1------------------------------------|
|---------------------------------3-3-3-3-3-3-3-3-3-3-3-3-3-3-3-3----|


|--------------------------------------------------------------------|
|--------------------------------------------------------------------|
|--------------------------------------------------------------------|
|--------------------------------------------------------------------|
|-2------------------------------------------------------------------|
|-2------------------------------------------------------------------|
|-0------------------------------------------------------------------|


Part1 Lead (played over part1 rhythm)
|-------------------------------------------------------------------------|
|-------------------------------------------------------------------------|
|---------------------------------a.h-------------------------------------|
|-----a.h-----------------------------------------------------10----------|
|----------------------8--10--8--10b11~--10--8--10---10h11h13----13-11-10-|
|--8~--8~---8--10--11-----------------------------------------------------|
|-------------------------------------------------------------------------|
            .   .  .   .  .   .           

|-----------------------------------------------------------------|
|-----------------------------------------------------------------|
|----------------------------------------10-12-10-12-12h13p12p10--|
|-12h13p12p10----12-10----------10-12-13--------------------------|
|-------------13-------13-11-13-----------------------------------|
|-----------------------------------------------------------------|
|-----------------------------------------------------------------|


|--------------------------15~--15--13--11--------11-13p11h13p11-------|
|----------------------------------------------15----------------15-13-|
|----12-10-------12~---------------------------------------------------|
|-13-------13-12-------------------------------------------------------|
|----------------------------------------------------------------------|
|----------------------------------------------------------------------|
|----------------------------------------------------------------------|


|-------------------------11----------------------------------------------|
|-15h16p15p13----15-13b15----13~---15-16-18p16h18p16p15----15-16p15-16p15-|
|-------------15----------------------------------------17----------------|
|-------------------------------------------------------------------------|
|-------------------------------------------------------------------------|
|-------------------------------------------------------------------------|
|-------------------------------------------------------------------------|

                                                                     a.h
|-------------------------------------------------------------------------|
|-----15------------------------------------------------------------------|
|--17----17-15----15---------------------------------------15---------8~--|
|--------------18----18-17-15-17-18p17-18p17-15----15b17~-----15--13------|
|-----------------------------------------------18------------------------|
|-------------------------------------------------------------------------|
|-------------------------------------------------------------------------|


Part2 Lead (played over part2 rhythm)
|-----------------12-13-15-13h15p13p12-13-12----12\10----10----10---------|
|--17b18~--18r17-----------------------------15-------13----13----13-12---|
|-------------------------------------------------------------------------|
|-------------------------------------------------------------------------|
|-------------------------------------------------------------------------|
|-------------------------------------------------------------------------|
|-------------------------------------------------------------------------|


|------------------------------------------------------12-17p12---------|
|-12-13-15-13h15p13p12----12-13p12-------------------13--------13-------|
|----------------------14----------14~-------------14------------14-----|
|------------------------------------------------14----------------14---|
|----------------------------------------------15--------------------12-|
|--------------------------------------------17-------------------------|
|-----------------------------------------------------------------------|


|----------------12-15-13-12----12----------------------17-18-19-20~-19-17-|
|--------------13------------15----15-13-12-10-10b12~----------------------|
|------------14------------------------------------------------------------|
|----------14--------------------------------------------------------------|
|--15p12h15----------------------------------------------------------------|
|--------------------------------------------------------------------------|
|--------------------------------------------------------------------------|


|--------------------------------------------------------------------|
|-16~--------15~--------14~-----13~---------12~----------------------|
|--------------------------------------------------------------------|
|--------------------------------------------------------------------|
|--------------------------------------------------------------------|
|--------------------------------------------------------------------|
|--------------------------------------------------------------------|



|--------------------------------------------------------------------|
|--------------------------------------------------------------------|
|--------------------------------------------------------------------|
|-9~------9b10r9~--------7/9-----------------------------------------|
|--------------------------------------------------------------------|
|--------------------------------------------------------------------|
|--------------------------------------------------------------------|


Play verse without harmonics
Play Chorus2
Play Intro Ending with a low B

The End
Suggest correction
Give kudos to tab author, rate the tab!
1 2 3 4 5
comments
print report bad tab
1 comment total.
0 reply
big bear 70 wrote on September 11 2004, 12:00 am

***in spot on tab, dude !

guest
You may want to rate the tab now too:
select rating
Wanna post a correction for this tab? Suggest correction