Oops, an error
Loading. Please wait.

No More Will Bass Tab

version 1
version 1

Whole song

Interactive

297 views 1 this week
no commentswrite comment
1 2 3 4 5
please rate
add to favorites
launch autoscroll
font size
0
reset
guitar tuner
Tab Pro tools
  • play this tab
  • loop segment
  • change instrument
  • show fretboard
  • metronome
Autoscroll
slow
fast
+/-
esc
set tempo
stop
Contributor
Tuning
D# G# C# F# A# D#
#----------------------------------PLEASE NOTE---------------------------------#
#This file is the author's own work and represents their interpretation of the #
#song. You may only use this file for private study, scholarship, or research. #
#------------------------------------------------------------------------------#

NO MORE WILL (Bassline)
As recorded by Nevermore
(From the 1999 Album DREAMING NEON BLACK)

Transcribed by Alberto Almeida
	

Words and Music by Nevermore

Gtr I (D# G# C# F#) - 'Bass'

 Intro         Bridge
  Q.=72         Q.=77
 6/8
  Gtr I
                                                     PM--|
  Wx16          E +S  E +S  Q.     E +S  E +S  E +S  S S S
|-----------||-------------------|-------------------------|
|-----------||o------------------|-------------------------|
|-----------||o------------------|-------------------------|
|-----------||--3-(3)-3-(3)-3----|-3-(3)-3-(3)-3-(3)-3-3-3-|


                    PM--|                     PM--|
  E +S  E +S  E +S  S S S   E +S  E +S  E +S  S S S    4x
|-------------------------|----------------------------||
|-------------------------|---------------------------o||
|-------------------------|---------------------------o||
|-1-(1)-1-(1)-1-(1)-1-1-1-|-4-(4)-4-(4)-4-(4)-4-4-4----||


   Verse
    Q.=78
    E. E. E. E.   +E. E. +E. E.    E. E. E. E.
||--------------|---------------|--------------|
||o-------0-----|---------------|--------0-----|
||o----1-----1--|-(1)-----------|-----4-----4--|
||--3-----------|-----3--(3)-1--|-/6-----------|


                  1.,2.
  +E. E. +E. E.   E. E. E. E.   +E. E. +E. E.
|---------------|-------------|---------------|
|---------------|-------0-----|---------------|
|-(4)-----------|----3-----3--|-(3)-----------|
|-----6--(6)-6--|-5-----------|-----5--(5)-3--|


                                  3.
  E. E. E. E.   +E. E. +E. E.  3x E. E. E. E.
|-------------|----------------||-------------|
|-------0-----|---------------o||-------0-----|
|----3-----3--|-(3)-----------o||----3-----3--|
|-2-----------|-----2--(2)-2---||-5-----------|


                                       PM--|
  +E. E. +E. E.   E. E. E. E.   +E. E. S S S  S  +E
|---------------|-------------|------------------------||
|---------------|-------0-----|------------------------||
|-(3)-----------|----3-----3--|-(3)--------------------||
|-----5--(5)-3--|-2-----------|-----2--0-0-0-14-(14)\--||


 Guitar Break
     PM|             PM------|         PM----|       PM
   S S S  S  S  S  S S S S S S    S  S S S S S  S  S S  S  S  S
|------------------------------|--------------------------------|
|------------------------------|--------------------------------|
|------------------------------|--------------------------------|
|-12-0-0-13-12-10-12-0-0-0-0-0-|-12-13-0-0-0-0-12-13-0-13-12-10-|


     PM|             PM------|         PM----|       PM      PM
   S S S  S  S  S  S S S S S S    S  S S S S S  S  S S  S  S S
|------------------------------|----------------------------------|
|------------------------------|----------------------------------|
|------------------------------|----------------------------------|
|-12-0-0-13-12-10-12-0-0-0-0-0-|-12-13-0-0-0-0-12-13-0-12-13-0----|


     PM|             PM------|         PM----|       PM
   S S S  S  S  S  S S S S S S    S  S S S S S  S  S S  S  S  S
|------------------------------|--------------------------------|
|------------------------------|--------------------------------|
|------------------------------|--------------------------------|
|-12-0-0-13-12-10-12-0-0-0-0-0-|-12-13-0-0-0-0-12-13-0-13-12-10-|


     PM|             PM------|
   S S S  S  S  S  S S S S S S   q  H
|------------------------------|---------||
|------------------------------|---------||
|------------------------------|---------||
|-12-0-0-13-12-10-12-0-0-0-0-0-|-1-------||


   Verse
    Q.=77
    $
     PM------------------------------------------------------------
     S S S  S  S  S  S S S S S S    S  S S S S S  S  S S  S  S  S
||-------------------------------|--------------------------------|
||o------------------------------|--------------------------------|
||o------------------------------|--------------------------------|
||--12-0-0-13-12-10-12-0-0-0-0-0-|-12-13-0-0-0-0-12-13-0-13-12-10-|


 ------------------------------------------------------------|
   S S S  S  S  S  S S S S S S    S  S S S S S  S  S S  S  S S
|------------------------------|-----------------------------------||
|------------------------------|----------------------------------o||
|------------------------------|----------------------------------o||
|-12-0-0-13-12-10-12-0-0-0-0-0-|-12-13-0-0-0-0-12-13-0-12-13-0-----||


       PM----------------------|         PM----|       PM------|
     S S S  S  S  S  S S S S S S    S  S S S S S  S  S S  S  S  S
||-------------------------------|--------------------------------|
||o------------------------------|--------------------------------|
||o------------------------------|--------------------------------|
||--12-0-0-13-12-10-12-0-0-0-0-0-|-12-13-0-0-0-0-12-13-0-13-12-10-|


     PM--------|     PM------|         PM----|       PM      PM
   S S S  S  S  S  S S S S S S    S  S S S S S  S  S S  S  S S
|------------------------------|-----------------------------------||
|------------------------------|----------------------------------o||
|------------------------------|----------------------------------o||
|-12-0-0-13-12-10-12-0-0-0-0-0-|-12-13-0-0-0-0-12-13-0-12-13-0-----||


   Pre-Chorus
                                  1.            2.
                                                 D.S.
                                                      ~~~
    H.        H.        H.        Q.   Q.       Q.    Q.
||----------|---------|---------|------------||-------------||
||o---------|---------|---------|-----------o||-------------||
||o---------|---------|---------|-----------o||-------------||
||--3-------|-4-------|-2-------|-1----4-----||-1----/4-----||


   Chorus
          PM--|     PM  PM        PM--|     PM  PM
    E +S  S S S E S S S S   E +S  S S S E S S S S
||------------------------|-----------------------|
||o-----------------------|-----------------------|
||o-7-(7)-------7-7---7---|-7-(7)-------7-7---6---|
||--------0-0-0-----0---0-|-------0-0-0-----0---0-|


        PM--|     PM  PM        PM--|
  E +S  S S S E S S S S   E +S  S S S E E E
|-----------------------|--------------------|
|-----------------------|--------------------|
|-6-(6)-------6-6---6---|-6-(6)-------6-6-7--|
|-------0-0-0-----0---0-|-------0-0-0--------|


        PM--|     PM  PM        PM--|     PM  PM
  E +S  S S S E S S S S   E +S  S S S E S S S S
|-----------------------|-----------------------|
|-----------------------|-----------------------|
|-7-(7)-------7-7---7---|-7-(7)-------7-7---6---|
|-------0-0-0-----0---0-|-------0-0-0-----0---0-|


      PM--|             PM--|
  E S S S S E E E   E S S S S E E   E
|-----------------|--------------------||
|-----------------|-------------------o||
|-6-6-------6-6-7-|-8-8-------8-8-/10-o||
|-----0-0-0-------|-----0-0-0----------||


   Interlude
    Q.=78
            PM------|           PM------|
    S e e e S S S S S   S e e e S S S S S
||--------------------|-------------------|
||o-------------------|-------------------|
||o-------------2-1-0-|-------------------|
||--1p0-0-0-1-0-------|-1p0-0-0-1-0-1-5-0-|


          PM--------------|   PM------|   PM
  S e e e S S S S S   S S S S S S S S S S S S   3x
|-------------------|---------------------------||
|-------------------|--------------------------o||
|-------------2-1-0-|-------1------------------o||
|-1p0-0-0-1-0-------|-1-0-5---5-0-1-0-1-5-0-5---||


   Guitar Solo
                                   1.             2.
    H.        +H.        H.        H    +E  E     H     E E
||----------|----------|---------|-------------||------------||
||o---------|----------|---------|------------o||------------||
||o---------|----------|---------|------------o||------------||
||--2-------|-(2)------|-3-------|-0----(0)-3--||-0----/3-2--||


            PM------|           PM------|
    S e e e S S S S S   S e e e S S S S S
||--------------------|-------------------|
||o-------------------|-------------------|
||o-------------2-1-0-|-------------------|
||--1p0-0-0-1-0-------|-1p0-0-0-1-0-1-5-0-|


          PM--------------|   PM------|   PM
  S e e e S S S S S   S S S S S S S S S S S S
|-------------------|---------------------------||
|-------------------|--------------------------o||
|-------------2-1-0-|-------1------------------o||
|-1p0-0-0-1-0-------|-1-0-5---5-0-1-0-1-5-0-5---||


   Pre-Chorus
                                  1.            2.
                                                      ~~~
    H.        H.        H.        Q.   Q.       Q.    Q.
||----------|---------|---------|------------||-------------||
||o---------|---------|---------|-----------o||-------------||
||o---------|---------|---------|-----------o||-------------||
||--3-------|-4-------|-2-------|-1----4-----||-1----/4-----||


   Chorus
    Q.=77
          PM--|     PM  PM        PM--|     PM  PM
    E +S  S S S E S S S S   E +S  S S S E S S S S
||------------------------|-----------------------|
||o-----------------------|-----------------------|
||o-7-(7)-------7-7---7---|-7-(7)-------7-7---6---|
||--------0-0-0-----0---0-|-------0-0-0-----0---0-|


        PM--|     PM  PM        PM--|
  E +S  S S S E S S S S   E +S  S S S E E E
|-----------------------|--------------------|
|-----------------------|--------------------|
|-6-(6)-------6-6---6---|-6-(6)-------6-6-7--|
|-------0-0-0-----0---0-|-------0-0-0--------|


        PM--|     PM  PM        PM--|     PM  PM
  E +S  S S S E S S S S   E +S  S S S E S S S S
|-----------------------|-----------------------|
|-----------------------|-----------------------|
|-7-(7)-------7-7---7---|-7-(7)-------7-7---6---|
|-------0-0-0-----0---0-|-------0-0-0-----0---0-|


      PM--|             PM--|
  E S S S S E E E   E S S S S E E   E
|-----------------|--------------------||
|-----------------|-------------------o||
|-6-6-------6-6-7-|-8-8-------8-8-/10-o||
|-----0-0-0-------|-----0-0-0----------||


 Pre-Verse
  Q.=76
  E. E. E. E.   +E. E. +E. E.    E. E. E. E.
|-------------|---------------|--------------|
|-------0-----|---------------|--------0-----|
|----1-----1--|-(1)-----------|-----4-----4--|
|-3-----------|-----3--(3)-1--|-/6-----------|


  +E. E. +E. E.   E. E. E. E.   +E. E. +E. E.
|---------------|-------------|----------------|
|---------------|-------0-----|----------------|
|-(4)-----------|----3-----3--|-(3)------------|
|-----6--(6)-6--|-5-----------|-----5--(5)-3---|


                                 Verse
  E. E. E. E.   +E. E. +E. E.     E. E. E. E.
|-------------|---------------||--------------|
|-------0-----|---------------||o-------0-----|
|----3-----3--|-(3)-----------||o----1-----1--|
|-2-----------|-----2--(2)-2--||--3-----------|


  +E. E. +E. E.    E. E. E. E.   +E. E. +E. E.
|---------------|--------------|----------------|
|---------------|--------0-----|----------------|
|-(1)-----------|-----4-----4--|-(4)------------|
|-----3--(3)-1--|-/6-----------|-----6--(6)-6---|


                                1.,2.
  E. E. E. E.   +E. E. +E. E.   E. E. E. E.
|-------------|---------------|-------------|
|-------0-----|---------------|-------0-----|
|----3-----3--|-(3)-----------|----3-----3--|
|-5-----------|-----5--(5)-3--|-2-----------|


                    3.
                                         PM--|
  +E. E. +E. E.  3x E. E. E. E.   +E. E. S S S S +E
|----------------||-------------|----------------------||
|---------------o||-------0-----|----------------------||
|-(3)-----------o||----3-----3--|-(3)----------9-(9)\--||
|-----2--(2)-2---||-2-----------|-----2--0-0-0---------||


 Outro
  Q.=78
          PM------|           PM------|
  S e e e S S S S S   S e e e S S S S S
|-------------------|-------------------|
|-------------------|-------------------|
|-------------2-1-0-|-------------------|
|-1p0-0-0-1-0-------|-1p0-0-0-1-0-1-5-0-|


          PM--------------|   PM------|   PM
  S e e e S S S S S   S S S S S S S S S S S S
|-------------------|---------------------------|
|-------------------|---------------------------|
|-------------2-1-0-|-------1-------------------|
|-1p0-0-0-1-0-------|-1-0-5---5-0-1-0-1-5-0-5---|


          PM------|           PM------|
  S e e e S S S S S   S e e e S S S S S
|-------------------|-------------------|
|-------------------|-------------------|
|-------------2-1-0-|-------------------|
|-1p0-0-0-1-0-------|-1p0-0-0-1-0-1-5-0-|


          PM--------------|   PM------|   PM
  S e e e S S S S S   S S S S S S S S S S S S   W
|-------------------|-------------------------|------*|
|-------------------|-------------------------|------*|
|-------------2-1-0-|-------1-----------------|------*|
|-1p0-0-0-1-0-------|-1-0-5---5-0-1-0-1-5-0-5-|------*|



Duration Legend
---------------
W - whole; H - half; Q - quarter; E - 8th; S - 16th; T - 32nd; X - 64th; a - acciaccatura
+ - note tied to previous; . - note dotted; .. - note double dotted
Uncapitalized letters represent notes that are staccato (1/2 duration)
Irregular groupings are notated above the duration line
Duration letters will always appear directly above the note/fret number it represents the
duration for.  Duration letters with no fret number below them represent rests.  Multi-
bar rests are notated in the form Wxn, where n is the number of bars to rest for.  Low
melody durations appear below the staff

Tablature Legend
----------------
 h   - hammer-on
 p   - pull-off
 b   - bend
 pb  - pre-bend
 r   - bend release (if no number after the r, then release immediately)
 /\  - slide into or out of (from/to "nowhere")
 s   - legato slide
 S   - shift slide
 - natural harmonic
[n]  - artificial harmonic
n(n) - tapped harmonic
 ~   - vibrato
 tr  - trill
 T   - tap
 TP  - trem. picking
 PM  - palm muting
\n/  - tremolo bar dip; n = amount to dip
 \n  - tremolo bar down
 n/  - tremolo bar up
/n\  - tremolo bar inverted dip
 =   - hold bend; also acts as connecting device for hammers/pulls
 <> - volume swell (louder/softer)
 x   - on rhythm slash represents muted slash
 o   - on rhythm slash represents single note slash

Misc Legend
-----------
 |  - bar
||  - double bar
||o - repeat start
o|| - repeat end
*|  - double bar (ending)
 :  - bar (freetime)
 $  - Segno
 &  - Coda
Tempo markers -  = BPM(8/16=s8/s16), where s8 = swing 8ths, s16 = swing 16ths

comments
We did not receive enough feedback on this tab! Please rate:
print report bad tab
1 2 3 4 5
I want to post or [tab]
guest
You may want to rate the tab now too:
select rating
Please do not post tabs as comments. Select "correction" instead!