Oops, an error
Loading. Please wait.

Psalm Of Lydia Tab

version 1
version 1

Intro

Whole song

Interactive

10,703 views 3 this week
8 commentsread comments
1 2 3 4 5
x 4
add to favorites
launch autoscroll
font size
0
reset
how to read this tab
guitar tuner
Autoscroll
slow
fast
+/-
esc
set tempo
stop
Help us to improve Ultimate-Guitar.com Take our survey!
×
Difficulty
advanced
Done in arpeggio style.
Extremely Fast.
2/4time
    \/       /\        \//\     \//\   
|11p7-------------7h11p7---7h10p7---8-|
|----9-----------9------9-9------9-9-*|
|-----8---------8--------8--------8---|
|------9-------9----------------------|
|-------11p6h11----------------------*|
|-------------------------------------|

6/8time
    \/       /\        \/            /\         
|10p7-------------7/15p10--------------------10-|
|----8-----------8-------12----------------12---|
|-----7---------7----------12------------12-----|
|------9-------9-------------12--------12-------|
|-------10p5h10----------------14p10h14---------|
|-----------------------------------------------|

2/4time
    \/              /\                 \/  /\       T     \/  /\
|19p15------------------------15h19/22p19------19h2224p22p19------19-|
|-----15--------------------15-----------20--20-------------20--20---|
|-------16----------------16---------------19-----------------19-----|
|---------17------------17-------------------------------------------|
|-----------17--------17---------------------------------------------|
|-------------19p15h19-----------------------------------------------|

6/8time
    \/  /\        \/  /\       T\/  /\        \/  /\
|21p18------18h21p18------18h24p18------18h22p18------17-|
|-----19--19--------19--19--------19--19--------19--19---|
|-------18------------18------------18------------18-----|
|--------------------------------------------------------|
|--------------------------------------------------------|
|--------------------------------------------------------|

2/4time
    \/  /\        \/  /\       T     \/            /\
|20p17------17h20p17------17h2024p20p17--------------------17h20-|
|-----18--18--------18--18-------------18----------------18------|
|-------17------------17-----------------17------------17--------|
|------------------------------------------19--------19----------|
|--------------------------------------------20p15h20------------|
|----------------------------------------------------------------|

6/8time 
|----------------------------|
|-20b~~~~~~~~~~~~~~~~~~~~~~~-|
|-19b~~~~~~~~~~~~~~~~~~~~~~~-|
|----------------------------|
|----------------------------|
|----------------------------|
Suggest correction
comments
print report bad tab
8 comments total. Showing first comments.
0 reply
P.L.U.C.K. 10 Mar 18, 2006 08:44 PM

This band is truly amazing. I will not even attempt to learn this tab right now - I suck at sweep picking. This is just beast mode. Maybee I should go catch up on my steal this video knowledge.

+1 reply
arsonite 171 May 04, 2007 12:37 PM

Good job!

0 reply
chaoticfables 180 Feb 05, 2008 11:58 PM

Cool!!! Normally Jeff Loomis from Nevermore uses a 7-string, 27 fret guitar but this is great for normal electrics!! Nice one

guest
You may want to rate the tab now too:
select rating
Wanna post a correction for this tab? Suggest correction