Oops, an error
Loading. Please wait.

Psalm Of Lydia Tab

version 2
version 2

Intro

Solo

Whole song

Interactive

4,478 views 1 this week
7 commentsread comments
1 2 3 4 5
excellent!
x 3
add to favorites
launch autoscroll
font size
0
reset
how to read this tab
guitar tuner
Tab Pro tools
  • play this tab
  • loop segment
  • change instrument
  • show fretboard
  • metronome
Autoscroll
slow
fast
+/-
esc
set tempo
stop
Contributor
Difficulty
Nevermore
Psalm of Lydia solos
Tabbed by Nate Pritchett

Db Ab Db Gb Bb Eb

(2:25)
eb|-----2-5h2---------5-8h5-----------8-11h8--------------11-14S15-----|
bb|----3-----3-------7-----7-------10--------10---------13-------------|
gb|-2h5--------2/5--8-------5/8--11-------------8/11--14---------------|
Db|--------------------------------------------------------------------|
Ab|--------------------------------------------------------------------|
Db|--------------------------------------------------------------------|

eb|-11-14s151411--11--------------------------------------|
bb|-------------15--151311-10/11131110---10---------------|
gb|------------------------------------12—12/11 (11)*-----|
Db|-------------------------------------------------------|
Ab|-------------------------------------------------------|
Db|-------------------------------------------------------|

eb|-t17h14p15-t17h14p15h14p11-t15h14p11-t15h14p15/10s------|
bb|--------------------------------------------------13----|
gb|--------------------------------------------------------|
Db|--------------------------------------------------------|
Ab|--------------------------------------------------------|
Db|--------------------------------------------------------|

eb|------------------------------------------------------------------------------|
bb|-t15h13-t15h13p15/10-t1311s10-t13h11p10h7-t11h8p10h8s7-t13--------------------|
gb|----------------------------------------------------------h7--------10h9p12---|
Db|------------------------------------------------------------h10p8s7s----------|
Ab|------------------------------------------------------------------------------|
Db|------------------------------------------------------------------------------|

eb|------------------------------------------------------------------------|
bb|--------t14-------------------------------------------------------------|
gb|-t14h12-----h12—10h8s7p11-t12h7p8h7-------------------------------------|
Db|------------------------------------t12h10p8-t12h10p8h7s5-7b—5s4*-------|
Ab|------------------------------------------------------------------------|
Db|------------------------------------------------------------------------|

(2:35)
eb|-22b—22b-22b-22b-22b--------|
bb|----------------------------|
gb|----------------------------|
Db|----------------------------|
Ab|----------------------------|
Db|----------------------------|

eb|-22b-22-20-19-20h22-202220h19--192022201917192019171617191613--131617131617---|
bb|-----------------------------22------------------------------17---------------|
gb|------------------------------------------------------------------------------|
Db|------------------------------------------------------------------------------|
Ab|------------------------------------------------------------------------------|
Db|------------------------------------------------------------------------------|

eb|-191716131617161312161312--1312----12----------1213161312--1312----12---------|
bb|-------------------------15----1513--1513121315----------15----1513--151312---|
gb|------------------------------------------------------------------------------|
Db|------------------------------------------------------------------------------|
Ab|------------------------------------------------------------------------------|
Db|------------------------------------------------------------------------------|

eb|-------------------------------------------------------------------------|
bb|-----------1213151312----------------------------------------------------|
gb|-1412111214----------141211121411--11------------------------------------|
Db|---------------------------------14--14121012141210--10-----12-12s14-12b-|
Ab|---------------------------------------------------14--12-11-------------|
Db|-------------------------------------------------------------------------|



(2:45)
eb|-----------------------------------------14----14-------14---------------|
bb|--------------------------------13----13----13----13b-----13----------13*|
gb|-----------------------11----11----11-----------------------11------11---|
Db|----------------10---10---10--------------------------------------10-----|
Ab|--3---3-9----9-----9--------------------------------------------9--------|
Db|----4-----10-------------------------------------------------------------|

eb|------------------------------------------------------------------------|
bb|-10b11b--81011-101113-1113151311-1311131110--10--------11131513-111315--|
gb|-------------------------------------------12---12-1112-----------------|
Db|------------------------------------------------------------------------|
Ab|------------------------------------------------------------------------|
Db|------------------------------------------------------------------------|

eb|-12----151412----121415-1415171514—141517b-17-18b—(18)(18)-18-18b----|
bb|----15-------1513-----------------17---------------------------------|
gb|---------------------------------------------------------------------|
Db|---------------------------------------------------------------------|
Ab|---------------------------------------------------------------------|
Db|---------------------------------------------------------------------|

(2:54)
eb|-------------------------------------------------------------|
bb|-------------------------------------------------------------|
gb|-----------------------------------------------------9-------|
Db|----------------------------------7--------7910-91012-1210---|
Ab|---------------5----------578-7810--1087810------------------|
Db|-7910-7910-7910--1097-7910-----------------------------------|

eb|-----------------------------------------------------1213151312------------|
bb|-----------10121312101210----------------101213121315----------151312------|
gb|------91012--------------12109------91012----------------------------1412--|
Db|-91012------------------------121012---------------------------------------|
Ab|---------------------------------------------------------------------------|
Db|---------------------------------------------------------------------------|

eb|---------------------------121315131517151719171920192022202224242424b24b24b22~~-|
bb|---------------121315121315------------------------------------------------------|
gb|-----------1214------------------------------------------------------------------|
Db|-1514121415----------------------------------------------------------------------|
Ab|---------------------------------------------------------------------------------|
Db|---------------------------------------------------------------------------------|

comments
We did not receive enough feedback on this tab! Please rate:
print report bad tab
1 2 3 4 5
7 comments total. Showing first comments. show 1 bad comment
0 reply
guitarfreek6889 wrote on September 12 2007, 09:48 pm

Very nice, 100% correct. But how in the hell did you figure out those notes to the exact precision? Anyway nice, see if you can get the whole song i'd like to learn it.

+2 reply
chaoticfables wrote on February 6 2008, 12:00 am

Umm... rebofthetemple... C# is the same as Db

I want to post or [tab]
guest
You may want to rate the tab now too:
select rating
Please do not post tabs as comments. Select "correction" instead!