Oops, an error
Loading. Please wait.

Rejected All Along Tab

version 1
version 1

Intro

Whole song

70 views 1 this week
no commentswrite comment
1 2 3 4 5
excellent!
x 3
add to favorites
launch autoscroll
font size
0
reset
how to read this tab
guitar tuner
Tab Pro tools
  • play this tab
  • loop segment
  • change instrument
  • show fretboard
  • metronome
Autoscroll
slow
fast
+/-
esc
set tempo
stop
Contributor
Difficulty
Tuning
novice
D# G# C# F# A# D#
-------------------------------------------------------------------------------
                             Rejected All along - Neverstore
-------------------------------------------------------------------------------
Tabbed by:Connor Smith
E-mail:connorbetts-1995@hotmail.co.uk

Tuning:Half stepdown

The Bass line throughout the verses

eb|---------------------------------------------------------------------------|
Bb|---------------------------------------------------------------------------|
Gb|---------------------------------------------------------------------------|
Db|--------------5-5--5--------------------6-6--6-6-6-6-----------------------|
Ab|-6-6-6-6-6--6--------5-5-5-3-3-3-3-3--3------------------------------------|
Eb|---------------------------------------------------------------------------|

Verse

eb|---------------------------------------------------------------------------|
Bb|---------------------------6~----------------------------------------------|
Gb|-8--------------8------------8~-----------------8--------------------------|
Db|-8--------------8---------------8~--------------8--------------------------|
Ab|-6--------------6-------------------------------6--------------------------|
Eb|---------------------------------------------------------------------------|

Bridge

eb|---------------------------------------------------------------------------|
Bb|---6---6---6---6---6---6---6---6---6---6---6---6---------------------------|
Gb|-8---8---8---8---8---8---8---8---8---8---8---8---7-------------------------|
Db|---------------------------------------------------------------------------|
Ab|---------------------------------------------------------------------------|
Eb|---------------------------------------------------------------------------|

Chorus 

eb|---------------------------------------------------------------------------|
Bb|---------------------------------------------------------------------------|
Gb|-8-8-8-8-8-8-8-8-----------------------------------------------------------|
Db|-8-8-8-8-8-8-8-8-8-8-8-8-8-8-8-8-1010101010101010-6-6-6-6-6-6-6-6----------|
Ab|-6-6-6-6-6-6-6-6-8-8-8-8-8-8-8-8-1010101010101010-6-6-6-6-6-6-6-6----------|
Eb|-----------------6-6-6-6-6-6-6-6-8-8-8-8-8-8-8-8--4-4-4-4-4-4-4-4----------|x4

eb|---------------------------------------------------------------------------|
Bb|---------------------------------------------------------------------------|
Gb|------------8-8-8-8-8---8--------------------------------------------------|
Db|-10-10-10---8-8-8-8-8---8--------------------------------------------------|
Ab|-10-10-10---6-6-6-6-6---6--------------------------------------------------|
Eb|-8--8--8-------------------------------------------------------------------|

Verse

eb|---------------------------------------------------------------------------|
Bb|---------------------------------------------------------------------------|
Gb|---------------------------------------------------------------------------|
Db|--------------5-5--5--------------------6-6--6-6-6-6-----------------------|
Ab|-6-6-6-6-6--6--------5-5-5-3-3-3-3-3--3------------------------------------|
Eb|---------------------------------------------------------------------------|x2

eb|---------------------------------------------------------------------------|
Bb|---------------6~----------------------------------------------------------|
Gb|--8---------------8~-------------------------------------------------------|
Db|--8------------------------------------------------------------------------|
Ab|--6------------------------------------------------------------------------|
Eb|---------------------------------------------------------------------------|

Bridge

eb|-----------------------------------------------------------------------------------|
Bb|---6---6---6---6---6---6---6---6---6---6---6---6-----------------------------------|
Gb|-8---8---8---8---8---8---8---8---8---8---8---8---7---------------------------------|
Db|-----------------------------------------------------------------------------------|
Ab|----------------------------------------------------6-6-6-6-6-6-6-6-6-6-6-6-6-6-6-6|
Eb|----------------------------------------------------4-4-4-4-4-4-4-4-4-4-4-4-4-4-4-4|

Chorus

eb|---------------------------------------------------------------------------|
Bb|---------------------------------------------------------------------------|
Gb|-8-8-8-8-8-8-8-8-----------------------------------------------------------|
Db|-8-8-8-8-8-8-8-8-8-8-8-8-8-8-8-8-1010101010101010-6-6-6-6-6-6-6-6----------|
Ab|-6-6-6-6-6-6-6-6-8-8-8-8-8-8-8-8-1010101010101010-6-6-6-6-6-6-6-6----------|
Eb|-----------------6-6-6-6-6-6-6-6-8-8-8-8-8-8-8-8--4-4-4-4-4-4-4-4----------|x4

Bridge 2

eb|---------------------------------------------------------------------------|
Bb|---------------------------------------------------------------------------|
Gb|-5-5----3-3----------------------3-----------------------------------------|
Db|-5-5----3-3------6-6----5-5-5-6--3-----------------------------------------|
Ab|-3-3----1-1------6-6----5-5-5-6--1-----------------------------------------|
Eb|-----------------4-4----3-3-3-4--------------------------------------------|x2

eb|---------------------------------------------------------------------------|
Bb|---------------------------------------------------------------------------|
Gb|-----3-----3-----3-----3---------------------------------------------------|
Db|-0-0---0-0---0-0---0-0---0-0-3-1-------------------------------------------|
Ab|---------------------------------------------------------------------------|
Eb|---------------------------------------------------------------------------|x8

Palm mute all 

eb|---------------------------------------------------------------------------|
Bb|---------------------------------------------------------------------------|
Gb|---------------------------------------------------------------------------|
Db|-8-8-8-8-8-8-8-8-----------------------------------------------------------|
Ab|-6-6-6-6-6-6-6-6-8-8-8-8-8-8-8-8-1010101010101010-6-6-6-6-6-6-6-6----------|
Eb|-----------------6-6-6-6-6-6-6-6-8-8-8-8-8-8-8-8--4-4-4-4-4-4-4-4----------|x2

Last chorus

eb|---------------------------------------------------------------------------|
Bb|---------------------------------------------------------------------------|
Gb|-8-8-8-8-8-8-8-8-----------------------------------------------------------|
Db|-8-8-8-8-8-8-8-8-8-8-8-8-8-8-8-8-1010101010101010-6-6-6-6-6-6-6-6----------|
Ab|-6-6-6-6-6-6-6-6-8-8-8-8-8-8-8-8-1010101010101010-6-6-6-6-6-6-6-6----------|
Eb|-----------------6-6-6-6-6-6-6-6-8-8-8-8-8-8-8-8--4-4-4-4-4-4-4-4----------|x4

Outro

eb|---------------------------------------------------------------------------|
Bb|---------------------------------------------------------------------------|
Gb|-8-8-8-8-8-8-8-8-7-7-7-7-7-7-7-7-6-6-6-6-6-6-6-6-5-5-5-5-5-5-5-5-----------|
Db|-8-8-8-8-8-8-8-8-7-7-7-7-7-7-7-7-6-6-6-6-6-6-6-6-5-5-5-5-5-5-5-5-----------|
Ab|-6-6-6-6-6-6-6-6-5-5-5-5-5-5-5-5-4-4-4-4-4-4-4-4-3-3-3-3-3-3-3-3-----------|
Eb|---------------------------------------------------------------------------|

eb|---------------------------------------------------------------------------|
Bb|---------------------------------------------------------------------------|
Gb|-----------------------------------8~--------------------------------------|
Db|-6-----------------8---------------8~--------------------------------------|
Ab|-6x24--------------8---------------6~--------------------------------------|
Eb|-4-----------------6-------------------------------------------------------|




************************************

| /   slide up
| \   slide down
| h   hammer-on
| p   pull-off
| ~   vibrato
| +   harmonic
| x   Mute note
| b   Bend
| pb  Pre-bend
| br  Bend release
| pbr Pre-bend release
| brb Bend release bend

************************************
comments
We did not receive enough feedback on this tab! Please rate:
print report bad tab
1 2 3 4 5
I want to post or [tab]
guest
You may want to rate the tab now too:
select rating
Please do not post tabs as comments. Select "correction" instead!