Oops, an error
Loading. Please wait.

Come On Bass Tab

1,359 views 1 this week
no commentswrite comment
1 2 3 4 5
3 more votes to show rating
add to favorites
launch autoscroll
font size
0
reset
guitar tuner
×
Best way to learn
"Come On"
Autoscroll
slow
fast
+/-
esc
set tempo
stop
Author
Difficulty
G-------------------------------------|
D-------------------------------------|
A--------------------------2-0-2-0----|
E--3-3-3-3-3-3-0---/-0-3-0------------|

G-------------------------------------|
D-------------------------------------|
A--------------------------2-0-2-0----|
E--3-3-3-3-3-3-0---/-0-3-0------------|

G-------------------------------------|
D-------------------------------------|
A--------------------------2-0--------|
E--3-3-3-3-3-3-0---/-0-3-0-----3-0----|

G-------------------------------------|
D-------------------------------------|
A--------------------------2-0-2-0----|
E--3-3-3-3-3-3-0---/-0-3-0------------|

www.newadventures.nl
Suggest correction
Give kudos to tab author, rate the tab!
1 2 3 4 5
comments
print report bad tab
guest
You may want to rate the tab now too:
select rating
Wanna post a correction for this tab? Suggest correction