Oops, an error
Loading. Please wait.

Closer tab

13 views 1 this week
no commentswrite comment
1 2 3 4 5
3 more votes to show rating
add to favorites
×
Save as Personal and add changes to this tab that will be seen only by you. Learn more ›
×
You can save this tab as Personal to edit and correct it or add notes. All changes will be seen only by you. Learn more »
launch autoscroll
font size
0
reset
how to read this tab
guitar tuner
edit
Autoscroll
slow
fast
+/-
esc
set tempo
stop
About this tab version
Full guitar tab of Closer. Plays much easier with CAPO on 5th fret but tabs are referred to actual frets, not capo = 0. Not too hard since common riffs are repeated throughout. Please rate or comment. Was this info helpful? Yes No
New District - Closer
Standard Tuning


[Intro]

e|----------------5-------|----------------------|
B|-------7----------------|-------7--5-----------|
G|----7--------7----------|----------------6-----|
D|----------5-------------|----7-----7-----------|
A|------------------------|-5--------------------|
E|-7----------------------|----------------------|

e|----------------5-------|----------------------|
B|-------7----------------|-------7--5-----------|
G|----7--------7----------|----------------------|
D|----------5-------------|----7-----7-----------|
A|------------------------|-5--------------------|
E|-7----------------------|----------------------|



[Verse]
   Offbeat rhytms, so beats are marked below

e|----------------5--------|----------------5---------|
B|----7-----------5--------|----------------5-----7---|
G|----7-----------7--------|----7-----------7-----7---|
D|----------5*-------------|----7-----7*--------------|   play 4x
A|-------------------------|--------------------------|
E|-7-----------------------|--------------------------|
   1  &  2  &  3  &  4  &    1  &  2  &  3  &  4  &



[Prechorus]

   let notes ring                                 short offbeat notes again 
e|-------------------------|-------5-----7-----------|-----------------------|
B|----------8-----------7--|-------------------------|-----------------------|
G|-------7-----------7-----|----7-----------------7--|---7----7-----7--------|
D|----9-----------7--------|-5-----------------------|-------------------/7--|
A|-7-----------9-----------|-------------------------|---5----5-----5--------|
E|-------------------------|-------------------------|-----------------------|

            
e|----5-----5*----5--5-----|----------------------5--|----------10----10-10-10*-|
B|----5-----5*----5--5-----|----------8--------------|-------7--------7--7--7*--|
G|----7-----7*----7--7-----|-------7-----------7-----|----7-----------7--7--7*--|
D|----7-----7*----7--7-----|----9-----------7--------|-5--------------5--5--7*--|
A|-------------------------|-7-----------9-----------|--------------------------|
E|-------------------------|-------------------------|--------------------------|


e|----10-10-10*------10----|
B|----7--7--7*-------7-----|
G|----7--7--7*-------7-----|
D|----7--7--7*-------7-----|
A|-------------------------|
E|-------------------------|



[Chorus]

e|------------------------|------------------------|------------------------|
B|-7----------5-----------|-7----------5-----------|------------5-----------|
G|------7----------7------|------7----------7------|-7----7----------7------| 
D|---------7----------7---|---------7----------7---|---------7----------7---|
A|------------------------|------------------------|------------------------|
E|------------------------|------------------------|------------------------|

e|------------------------|------------------------|------------------------|
B|-7----------5-----------|-7----------5-----------|-7----------5-----------|
G|------7----------7------|------7----------7------|------7----------7------| 
D|---------7----------7---|---------7----------7---|---------7----------7---|
A|------------------------|------------------------|------------------------|
E|------------------------|------------------------|------------------------|

e|------------------------|------------------------|------------------------|
B|------------5-----------|-7----------5-----------|---8--7--5-----------7--|
G|-7----7----------7------|------7----------7------|---------------7--------|
D|---------7----------7---|---------7----------7---|------------------7-----|
A|------------------------|------------------------|------------------------|
E|------------------------|------------------------|------------------------|

e|------------------------|
B|---------5--------------|
G|---7-----------7--------|
D|------7-----------7-----|
A|------------------------|
E|------------------------|



[Verse 2]
   Offbeat rhytms, so beats are marked below

e|----------------5--------|----------------5---------|
B|----7-----------5--------|----------------5-----7---|
G|----7-----------7--------|----7-----------7-----7---|
D|----------5*-------------|----7-----7*--------------|   play 4x
A|-------------------------|--------------------------|
E|-7-----------------------|--------------------------|
   1  &  2  &  3  &  4  &    1  &  2  &  3  &  4  &



[Prechorus 2]

   let notes ring                                 short offbeat notes again 
e|-------------------------|-------5-----7-----------|-----------------------|
B|----------8-----------7--|-------------------------|-----------------------|
G|-------7-----------7-----|----7-----------------7--|---7----7-----7--------|
D|----9-----------7--------|-5-----------------------|-------------------/7--|
A|-7-----------9-----------|-------------------------|---5----5-----5--------|
E|-------------------------|-------------------------|-----------------------|

            
e|----5-----5*----5--5-----|----------------------5--|----------10----10-10-10*-|
B|----5-----5*----5--5-----|----------8--------------|-------7--------7--7--7*--|
G|----7-----7*----7--7-----|-------7-----------7-----|----7-----------7--7--7*--|
D|----7-----7*----7--7-----|----9-----------7--------|-5--------------5--5--7*--|
A|-------------------------|-7-----------9-----------|--------------------------|
E|-------------------------|-------------------------|--------------------------|


e|----10-10-10*------10----|
B|----7--7--7*-------7-----|
G|----7--7--7*-------7-----|
D|----7--7--7*-------7-----|
A|-------------------------|
E|-------------------------|



[Chorus 2]

e|------------------------|------------------------|------------------------|
B|-7----------5-----------|-7----------5-----------|------------5-----------|
G|------7----------7------|------7----------7------|-7----7----------7------| 
D|---------7----------7---|---------7----------7---|---------7----------7---|
A|------------------------|------------------------|------------------------|
E|------------------------|------------------------|------------------------|

e|------------------------|------------------------|------------------------|
B|-7----------5-----------|-7----------5-----------|-7----------5-----------|
G|------7----------7------|------7----------7------|------7----------7------| 
D|---------7----------7---|---------7----------7---|---------7----------7---|
A|------------------------|------------------------|------------------------|
E|------------------------|------------------------|------------------------|

e|------------------------|------------------------|------------------------|
B|------------5-----------|-7----------5-----------|---8--7--5-----------7--|
G|-7----7----------7------|------7----------7------|---------------7--------|
D|---------7----------7---|---------7----------7---|------------------7-----|
A|------------------------|------------------------|------------------------|
E|------------------------|------------------------|------------------------|

e|------------------------|
B|---------5--------------|
G|---7-----------7--------|
D|------7-----------7-----|
A|------------------------|
E|------------------------|



[Bridge]

e|----------------5-------|----------------------|
B|-------7----------------|-------7--5-----------|
G|----7--------7----------|----------------------|
D|----------5-------------|----7-----7-----------|   play 4x
A|------------------------|-5--------------------|
E|-7----------------------|----------------------|



[Last Prechorus]

   let notes ring                                 short offbeat notes again 
e|-------------------------|-------5-----7-----------|-----------------------|
B|----------8-----------7--|-------------------------|-----------------------|
G|-------7-----------7-----|----7-----------------7--|---7----7-----7--------|
D|----9-----------7--------|-5-----------------------|-------------------/7--|
A|-7-----------9-----------|-------------------------|---5----5-----5--------|
E|-------------------------|-------------------------|-----------------------|

            
e|----5-----5*----5--5-----|----------------------5--|----------10----10-10-10*-|
B|----5-----5*----5--5-----|----------8--------------|-------7--------7--7--7*--|
G|----7-----7*----7--7-----|-------7-----------7-----|----7-----------7--7--7*--|
D|----7-----7*----7--7-----|----9-----------7--------|-5--------------5--5--7*--|
A|-------------------------|-7-----------9-----------|--------------------------|
E|-------------------------|-------------------------|--------------------------|


e|----10-10-10*------10----|
B|----7--7--7*-------7-----|
G|----7--7--7*-------7-----|
D|----7--7--7*-------7-----|
A|-------------------------|
E|-------------------------|



[Last Chorus]

e|------------------------|------------------------|------------------------|
B|-7----------5-----------|-7----------5-----------|------------5-----------|
G|------7----------7------|------7----------7------|-7----7----------7------| 
D|---------7----------7---|---------7----------7---|---------7----------7---|
A|------------------------|------------------------|------------------------|
E|------------------------|------------------------|------------------------|

e|------------------------|------------------------|------------------------|
B|-7----------5-----------|-7----------5-----------|-7----------5-----------|
G|------7----------7------|------7----------7------|------7----------7------| 
D|---------7----------7---|---------7----------7---|---------7----------7---|
A|------------------------|------------------------|------------------------|
E|------------------------|------------------------|------------------------|

e|------------------------|------------------------|------------------------|
B|------------5-----------|-7----------5-----------|---8--7--5-----------7--|
G|-7----7----------7------|------7----------7------|---------------7--------|
D|---------7----------7---|---------7----------7---|------------------7-----|
A|------------------------|------------------------|------------------------|
E|------------------------|------------------------|------------------------|

e|------------------------|
B|---------5--------------|
G|---7-----------7--------|
D|------7-----------7-----|
A|------------------------|
E|------------------------|



[Outro]

e|----------------5-------|----------------------|
B|-------7----------------|-------7--5-----------|
G|----7--------7----------|----------------------|
D|----------5-------------|----7-----7-----------|   play 2x
A|------------------------|-5--------------------|
E|-7----------------------|----------------------|


************************************
KEY

| *   Sustained notes - hold out these until the string is picked again
| /   Slide up
| \   Slide down

************************************

            
            
Suggest correction
Creating personal tab
Creating personal tab
You can edit any tab online and save it as your Personal.

You can edit, replace or remove any tab part or add personal notes – all changes will be seen only by you.

Personal tabs can be accessed anytime from any device, even offline.
Learn more »
Give kudos to tab author, rate the tab!
1 2 3 4 5
comments
print report bad tab
guest
You may want to rate the tab now too:
select rating
Wanna post a correction for this tab? Suggest correction