Oops, an error
Loading. Please wait.

Across The Oceans Bass Tab

16 views 1 this week
no commentswrite comment
1 2 3 4 5
3 more votes to show rating
add to favorites
launch autoscroll
font size
0
reset
guitar tuner
Autoscroll
slow
fast
+/-
esc
set tempo
stop
Help us to improve Ultimate-Guitar.com Take our survey!
×
Author
Difficulty
novice
About this tab version
Using standard tuning, you literally only need to know the chords F C# G# D#. Its a pretty basic song. This is how i play it. Please leave a review or something and i hope this was useful for ya :P. Was this info helpful? Yes No
[Intro]


G|------------------------------------------------------------------|
D|------------------------------------------------------------------|
A|----------6-6-6-6---------4-4-4-4---------6-6-6-6---------4-4-4-4-|
E|--4-4-4-4---------1-1-1-1---------4-4-4-4---------1-1-1-1---------|


[Verse]

G|------------------------------------------------------------------|
D|------------------------------------------------------------------|
A|----------4-4-4-4---------6-6-6-6---------4-4-4-4---------6-6-6-6-|
E|--1-1-1-1---------4-4-4-4---------1-1-1-1---------4-4-4-4---------|

G|------------------------------------------------------------------|
D|------------------------------------------------------------------|
A|------------------4-4-4-4-4-4-4-4-----------------6-6-6-6-6-6-6-6-|
E|--1-1-1-1-1-1-1-1-----------------4-4-4-4-4-4-4-4-----------------|

G|------------------------------------------------------------------|
D|------------------------------------------------------------------|
A|------------------4-4-4-4-4-4-4-4-----------------6-6-6-6-6-6-6-6-|
E|--1-1-1-1-1-1-1-1-----------------4-4-4-4-4-4-4-4-----------------|


[Chorus]

G|------------------------------------------------------------------|
D|------------------------------------------------------------------|
A|------------------4-4-4-4-4-4-4-4-----------------6-6-6-6-6-6-6-6-|
E|--1-1-1-1-1-1-1-1-----------------4-4-4-4-4-4-4-4-----------------|

G|------------------------------------------------------------------|
D|------------------------------------------------------------------|
A|------------------4-4-4-4-4-4-4-4-----------------6-6-6-6-6-6-6-6-|
E|--1-1-1-1-1-1-1-1-----------------4-4-4-4-4-4-4-4-----------------|


[Post Chorus]

G|------------------------------------------------------------------|
D|------------------------------------------------------------------|
A|----------6-6-6-6---------4-4-4-4---------6-6-6-6---------4-4-4-4-|
E|--4-4-4-4---------1-1-1-1---------4-4-4-4---------1-1-1-1---------|


[Verse]

G|------------------------------------------------------------------|
D|------------------------------------------------------------------|
A|----------4-4-4-4---------6-6-6-6---------4-4-4-4---------6-6-6-6-|
E|--1-1-1-1---------4-4-4-4---------1-1-1-1---------4-4-4-4---------|

G|------------------------------------------------------------------|
D|------------------------------------------------------------------|
A|------------------4-4-4-4-4-4-4-4-----------------6-6-6-6-6-6-6-6-|
E|--1-1-1-1-1-1-1-1-----------------4-4-4-4-4-4-4-4-----------------|

G|------------------------------------------------------------------|
D|------------------------------------------------------------------|
A|------------------4-4-4-4-4-4-4-4-----------------6-6-6-6-6-6-6-6-|
E|--1-1-1-1-1-1-1-1-----------------4-4-4-4-4-4-4-4-----------------|


[Chorus] (x2)

G|------------------------------------------------------------------|
D|------------------------------------------------------------------|
A|------------------4-4-4-4-4-4-4-4-----------------6-6-6-6-6-6-6-6-|
E|--1-1-1-1-1-1-1-1-----------------4-4-4-4-4-4-4-4-----------------|

G|------------------------------------------------------------------|
D|------------------------------------------------------------------|
A|------------------4-4-4-4-4-4-4-4-----------------6-6-6-6-6-6-6-6-|
E|--1-1-1-1-1-1-1-1-----------------4-4-4-4-4-4-4-4-----------------|


[Bridge]

G|---------------------------------------------------------------------------|
D|---------------------------------------------------------------------------|
A|-4-4-4-4-6-6-6-6-8-8-8-8-11-11-11-11-4-4-4-4-6-6-6-6-8-8-8-8-11-11-11-11---|
E|---------------------------------------------------------------------------|(x2)


[Chorus]

G|------------------------------------------------------------------|
D|------------------------------------------------------------------|
A|-----4-----6----------4-4-4-4---------6-6-6-6-6-6-6-6-------------|
E|--1-----4-----1-1-1-1---------4-4-4-4-----------------------------|

G|------------------------------------------------------------------|
D|------------------------------------------------------------------|
A|------------------4-4-4-4-4-4-4-4-----------------6-6-6-6-6-6-6-6-|
E|--1-1-1-1-1-1-1-1-----------------4-4-4-4-4-4-4-4-----------------|

G|------------------------------------------------------------------|
D|------------------------------------------------------------------|
A|------------------4-4-4-4-4-4-4-4-----------------6-6-6-6-6-6-6-6-|
E|--1-1-1-1-1-1-1-1-----------------4-4-4-4-4-4-4-4-----------------|
Suggest correction
Give kudos to tab author, rate the tab!
1 2 3 4 5
comments
print report bad tab
guest
You may want to rate the tab now too:
select rating
Wanna post a correction for this tab? Suggest correction