Oops, an error
Loading. Please wait.

Anthem For The Unwanted Tab

version 1
version 1

Whole song

Interactive

6,446 views 18 this week
1 commentread comment
1 2 3 4 5
excellent!
x 8
add to favorites
launch autoscroll
font size
0
reset
how to read this tab
guitar tuner
Tab Pro tools
  • play this tab
  • loop segment
  • change instrument
  • show fretboard
  • metronome
×
Best way to learn
"Anthem For The Unwanted"
Autoscroll
slow
fast
+/-
esc
set tempo
stop
Contributor
Difficulty
novice
-------------------------------------------------------------------------------
                ANTHEM FOR THE UNWANTED - NEW FOUND GLORY
-------------------------------------------------------------------------------

Tabbed by: Boris Paskhaver(bigbadb)
Email: bp771@nyu.edu

Album: Radiosurgery

Tuning: Standard

INTRO (0:01)

  (x2)
e|---------------------------------------------------------------------------|
B|---------------------------------------------------------------------------|
G|--5--5--5-5-5-5----5--5--5-5-5-5-------------------------------------------|
D|--x--x--x-x-x-x----x--x--x-x-x-x----7--7--7-7-7-7----3--3--3-3-3-3---------|
A|--3--3--3-3-3-3----3--3--3-3-3-3----x--x--x-x-x-x----x--x--x-x-x-x---------|
E|------------------------------------5--5--5-5-5-5----1--1--1-1-1-1---------|

  (x1)
e|---------------------------------------------------------------------------|
B|---------------------------------------------------------------------------|
G|--5--5--5-5-5-5----5--5--5-5-5-5-------------------------------------------|
D|--x--x--x-x-x-x----x--x--x-x-x-x----7--7--7-7-7-7----3-3-3-3-3-3-3-3-------|
A|--3--3--3-3-3-3----3--3--3-3-3-3----x--x--x-x-x-x----3-3-3-3-3-3-3-3-------|
E|------------------------------------5--5--5-5-5-5----1-1-1-1-1-1-1-1-------|
                                                       P.M------------|

BAND KICKS IN (0:18)

  GUITAR ONE (x2)
e|---------------------------------------------------------------------------|
B|---------------------------------------------------------------------------|
G|--5-5-5-5-5-5-5-5-5-5-5-5-5-5-5-5------------------------------------------|
D|--5-5-5-5-5-5-5-5-5-5-5-5-5-5-5-5----7-7-7-7-7-7-7-7----3-3-3-3-3-3-3-3----|
A|--3-3-3-3-3-3-3-3-3-3-3-3-3-3-3-3----7-7-7-7-7-7-7-7----3-3-3-3-3-3-3-3----|
E|-------------------------------------5-5-5-5-5-5-5-5----1-1-1-1-1-1-1-1----|

  GUITAR TWO (x2)
e|---------------------------------------------------------------------------|
B|---------------------------------------------------------------------------|
G|--9-9-9-9-9-9-7-7-9-9-9-9-9-9-7-7----9-9-9-9-9-9-7-7----5-5-5-5-5-5-5-5----|
D|--x-x-x-x-x-x-x-x-x-x-x-x-x-x-x-x----x-x-x-x-x-x-x-x----x-x-x-x-x-x-x-x----|
A|--7-7-7-7-7-7-5-5-7-7-7-7-7-7-5-5----7-7-7-7-7-7-5-5----3-3-3-3-3-3-3-3----|
E|---------------------------------------------------------------------------|

VERSE ONE (0:30)

e|---------------------------------------------------------------------------|
B|---------------------------------------------------------------------------|
G|--5-5-5----5-5-5------------------5-5-5----5-5-5---------------------------|
D|--5-5-5----5-5-5------3------5----5-5-5----5-5-5------3------5-------------|
A|--3-3-3----3-3-3------3------5----3-3-3----3-3-3------3------5-------------|
E|------------------1-1-1--3-3-3--------------------1-1-1--3-3-3-------------|
                    P.M    P.M                     P.M     P.M
 1   Bury me under                 That this would

PRE-CHORUS (0:43)

  (x3)                                 (x1)
e|------------------------------------|--------------------------------------|
B|------------------------------------|--------------------------------------|
G|------------------------5-----------|--------------------------------------|
D|------7--------5--------5--------3--|------7------5------------------------|
A|------7--------5----3-3-3--------3--|------7------5------------------------|
E|--5-5-5----3-3-3-------------1-1-1--|--5-5-5--3-3-3------------------------|
    P.M      P.M      P.M      P.M       P.M    P.M
 1  I'm not a smooth talker, I know
 2  my eyes are the wrong color
 3  open up your                          say...

INTRO RIFF (0:53)

  (x1)
e|---------------------------------------------------------------------------|
B|---------------------------------------------------------------------------|
G|--5--5--5-5-5-5----5--5--5-5-5-5-------------------------------------------|
D|--x--x--x-x-x-x----x--x--x-x-x-x----7--7--7-7-7-7----3-3-3-3-3-3-3-3-------|
A|--3--3--3-3-3-3----3--3--3-3-3-3----x--x--x-x-x-x----3-3-3-3-3-3-3-3-------|
E|------------------------------------5--5--5-5-5-5----1-1-1-1-1-1-1-1-------|
                                                       P.M------------|
 1    mean it              cause I didn't hear it

CHORUS ONE (0:59)

  (x2)
e|---------------------------------------------------------------------------|
B|---------------------------------------------------------------------------|
G|--5-5-5-5-5-5-5-5-5-5-5-5-5-5-5-5------------------------------------------|
D|--5-5-5-5-5-5-5-5-5-5-5-5-5-5-5-5----7-7-7-7-7-7-7-7----3-3-3-3-3-3-3-3----|
A|--3-3-3-3-3-3-3-3-3-3-3-3-3-3-3-3----7-7-7-7-7-7-7-7----3-3-3-3-3-3-3-3----|
E|-------------------------------------5-5-5-5-5-5-5-5----1-1-1-1-1-1-1-1----|
 1   What did you say as I walked      Did you want me    Did you want me
 2   What did you say as I walked      Did you want me    back?

VERSE TWO (1:11)

  (x1)
e|---------------------------------------------------------------------------|
B|---------------------------------------------------------------------------|
G|--5-5-5----5-5-5------------------5-5-5----5-5-5---------------------------|
D|--5-5-5----5-5-5------3------5----5-5-5----5-5-5------3------5-------------|
A|--3-3-3----3-3-3------3------5----3-3-3----3-3-3------3------5-------------|
E|------------------1-1-1--3-3-3--------------------1-1-1--3-3-3-------------|
                    P.M    P.M                     P.M     P.M
 1  Bury me                        this would end

PRECHORUS TWO (1:22)

  (x3)                                 (x1)
e|------------------------------------|--------------------------------------|
B|------------------------------------|--------------------------------------|
G|------------------------5-----------|---------------------5----------------|
D|------7--------5--------5--------3--|------7------5-------5-- LET RING ----|
A|------7--------5----3-3-3--------3--|------7------5-------3----------------|
E|--5-5-5----3-3-3-------------1-1-1--|--5-5-5--3-3-3------------------------|
    P.M      P.M      P.M      P.M       P.M    P.M
 1  that I was a pushover, so you
 2  pushed me right over the edge
 3  upset you never looked so            black but did you  mean it?

CHORUS TWO (1:35)

  (x4)
e|---------------------------------------------------------------------------|
B|---------------------------------------------------------------------------|
G|--5-5-5-5-5-5-5-5-5-5-5-5-5-5-5-5------------------------------------------|
D|--5-5-5-5-5-5-5-5-5-5-5-5-5-5-5-5----7-7-7-7-7-7-7-7----3-3-3-3-3-3-3-3----|
A|--3-3-3-3-3-3-3-3-3-3-3-3-3-3-3-3----7-7-7-7-7-7-7-7----3-3-3-3-3-3-3-3----|
E|-------------------------------------5-5-5-5-5-5-5-5----1-1-1-1-1-1-1-1----|
 1   What did you say as I walked      Did you want me    Did you want me
 2   What did you say as I walked      Did you want me    back?
 3   If you're having second thoughts  You didn't want    You didn't need
 4   What did you say as I walked      Did you want me    back?

BRIDGE (1:59) 

  (x2)
e|------------------------------------------|
B|------------------------------------------|
G|------------------------------------------|
D|--2--2-2-2--2-2-2-2----3--3-3-3--3-3-3-3--|
A|--2--2-2-2--2-2-2-2----3--3-3-3--3-3-3-3--|
E|--0--0-0-0--0-0-0-0----1--1-1-1--1-1-1-1--|

e|------------------------------------------|
B|------------------------------------------|
G|------------------------------------------|
D|--2--2-2-2--2-2-2-2----3-3-3-3--5-5-5-5---|
A|--2--2-2-2--2-2-2-2----3-3-3-3--5-5-5-5---|
E|--0--0-0-0--0-0-0-0----1-1-1-1--3-3-3-3---|
                         P.M-------------|

INTRO RIFF (2:11)

  (x3)
e|---------------------------------------------------------------------------|
B|---------------------------------------------------------------------------|
G|--5--5--5-5-5-5----5--5--5-5-5-5-------------------------------------------|
D|--x--x--x-x-x-x----x--x--x-x-x-x----7--7--7-7-7-7----3--3--3-3-3-3---------|
A|--3--3--3-3-3-3----3--3--3-3-3-3----x--x--x-x-x-x----x--x--x-x-x-x---------|
E|------------------------------------5--5--5-5-5-5----1--1--1-1-1-1---------|

  (x1)
e|---------------------------------------------------------------------------|
B|---------------------------------------------------------------------------|
G|--5--5--5-5-5-5----5--5--5-5-5-5-------------------------------------------|
D|--x--x--x-x-x-x----x--x--x-x-x-x----7--7--7-7-7-7----3-3-3-3---3-3---------|
A|--3--3--3-3-3-3----3--3--3-3-3-3----x--x--x-x-x-x----3-3-3-3---3-3---------|
E|------------------------------------5--5--5-5-5-5----1-1-1-1---1-1---------|
                                                       P.M----|  P.M

FINAL CHORUS (2:35)

  (x4)
e|---------------------------------------------------------------------------|
B|---------------------------------------------------------------------------|
G|--5-5-5-5-5-5-5-5-5-5-5-5-5-5-5-5------------------------------------------|
D|--5-5-5-5-5-5-5-5-5-5-5-5-5-5-5-5----7-7-7-7-7-7-7-7----3-3-3-3-3-3-3-3----|
A|--3-3-3-3-3-3-3-3-3-3-3-3-3-3-3-3----7-7-7-7-7-7-7-7----3-3-3-3-3-3-3-3----|
E|-------------------------------------5-5-5-5-5-5-5-5----1-1-1-1-1-1-1-1----|
 1   What did you say as I walked      Did you want me    Did you want me
 2   What did you say as I walked      Did you want me    back?
 3   If you're having second thoughts  You didn't want    You didn't need

On fourth time, finish with this; Guitar Two also comes in with octave riff on last 2 rounds.

e|----------------------------------------|
B|----------------------------------------|
G|----------------------------------------|
D|--7-7-7-7-7-7-7-7----3-3-3-3-3-3-3-3----|
A|--7-7-7-7-7-7-7-7----3-3-3-3-3-3-3-3----|
E|--5-5-5-5-5-5-5-5----1-1-1-1-1-1-1-1----|
    P.M------------|

END ON (2:59)

e|-----|
B|-----|
G|--5--|
D|--5--|
A|--3--|
E|-----|
comments
print report bad tab
1 comment total.
0 reply
kpeck2010 wrote on March 14 2012, 01:12 am

I'm pretty sure that octave riff your talking about at the last chorus is guitar 2 at 0:18

I want to post or [tab]
guest
You may want to rate the tab now too:
select rating
Please do not post tabs as comments. Select "correction" instead!