Oops, an error
Loading. Please wait.

Everything I Do I Do It For You tab

version 1
version 1

Whole song

28,957 views 3 this week
11 commentsread comments
1 2 3 4 5
x 14
add to favorites
×
Save as Personal and add changes to this tab that will be seen only by you. Learn more ›
×
You can save this tab as Personal to edit and correct it or add notes. All changes will be seen only by you. Learn more »
launch autoscroll
font size
0
reset
how to read this tab
guitar tuner
edit
Autoscroll
slow
fast
+/-
esc
set tempo
stop
Artist: New Found Glory
Title: Everything i do( i do for you )
Tabbed by: Tom Blizzard(aka Tin-Tin)
tombuttcrunch116@hotmail.com

Im guessing they use major reverb at the beginning, and you might wana try playing it on
the part of your string nearest to the bridge.Then they use a tiny bit of distortion.Not
as in a distortion pedal though.And thats about it
Intro
e---1-----1-----1------2--4--2--1-----------------------------4-------------------------|
B------2-----2-----2-------------------4-----4-----4-------4-----4----1-----------------|
G-------------------------------------------5-----5----5--------------------------------|
D---------------------------------------------------------------------------------------|
A---------------------------------------------------------------------------------------|
E---------------------------------------------------------------------------------------|

e---------------------------2---------1-------------------------------------------------|
B---2-----2-----2------2-----2--------------4----4--------------------------------------|
G-----3-----3-----3--------------------------------5------------------------------------|
D---------------------------------------------------------------------------------------|
A---------------------------------------------------------------------------------------|
E---------------------------------------------------------------------------------------|

Verses
e|--------------------------------------------------------------------------------------|
B|--------------------------------------------------------------------------------------|
G|-----------------6-----------------6------------------6-------------------------------|
D|-----------------6-----------------6--8---------------6-------------------------------|
A|-----------------4-----------------3--8---------------4-------------------------------|
E|--------------------------------------6---------------4-------------------------------|

e|--------------------------------------------------------------------------------------|
B|--------------------------------------------------------------------------------------|
G|-----------------6-----------------6------------------4-------------------------------|
D|-----------------6-----------------6--8---------------6-------------------------------|
A|-----------------4-----------------3--8---------------6-------------------------------|
E|--------------------------------------6---------------4-------------------------------|


 Bridge
e|--------------------------------------------------------------------------------------|
B|--------------------------------------------------------------------------------------|
G|--------------8-------------------6---------------------------------------------------|
D|--------------8-------------------6---------------------------------------------------|
A|--------------6-------------------4---------------------------------------------------|
E|--------------------------------------------------------------------------------------|

Chorus
e|--------------------------------------------------------------------------------------|
B|--------------------------------------------------------------------------------------|
G|-------------6---------------6----------6---------------------------------------------|
D|-------------6---------------6----------6---------------------------------------------|
A|-------------4---------------3----------4---------------------------------------------|
E|--------------------------------------------------------------------------------------|

 ( theres no love...)
e|--------------------------------------------------------------------------------------|
B|--------------------------------------------------------------------------------------|
G|-4-4-4-4-4-4-4-4-4-4-4-4---------------------------4-4-4-4-4-4-4-4-4-4-4-4------------|
D|-4-4-4-4-4-4-4-4-4-4-4-4--2-2-2-2-2-2-2-2-2-2-2-2--4-4-4-4-4-4-4-4-4-4-4-4------------|
A|-2-2-2-2-2-2-2-2-2-2-2-2--2-2-2-2-2-2-2-2-2-2-2-2--2-2-2-2-2-2-2-2-2-2-2-2------------|
E|--------------------------0-0-0-0-0-0-0-0-0-0-0-0-------------------------------------|

e|--------------------------------------------------------------------------------------|
B|--------------------------------------------------------------------------------------|
G|--------------------------6-6-6-6-6-6-6-6-6-6-6---------------------------------------|
D|-4-4-4-4-4-4-4-4-4-4-4-4--6-6-6-6-6-6-6-6-6-6-6--6-6-6-6-6-6-6-6-6-6-6----------------|
A|-4-4-4-4-4-4-4-4-4-4-4-4--4-4-4-4-4-4-4-4-4-4-4--6-6-6-6-6-6-6-6-6-6-6----------------|
E|-2-2-2-2-2-2-2-2-2-2-2-2-------------------------4-4-4-4-4-4-4-4-4-4-4----------------|

e|--------------------------------------------------------------------------------------|
B|--------------------------------------------------------------------------------------|
G|-8-8-8-8-8-8-8-8-8-8-8-8--------------------------------------------------------------|
D|-8-8-8-8-8-8-8-8-8-8-8-8--6--6--1--3--------1--3--------------------------------------|
A|-6-6-6-6-6-6-6-6-6-6-6-6--6--6--------1--4--------1--4--------------------------------|
E|-----------------------------------4--4-----------------------------------------------|

Solo
e|----------------------------------------------------------------------9---9-9-----------------------------|
B|---6-------6---------------------------6h9-9-----------9-BEND-9---------11-----9h11-----------------------|
G|--------------8-6---6--6/8-6---6-6-----------6-6---------------------------------------8h10--8-8-8\6-6-6--|
D|----------------8--------------8--------------------------------------------------------------------------|
A|----------------------------------------------------------------------------------------------------------|
E|----------------------------------------------------------------------------------------------------------|

e|---------------9---9-9----------------------------------------------------------------|
B|--9-BEND-9---------11-----9h11--------------------------------------------------------|
G|--------------------------------------------8h10--8-8-8\6-6-6-------------------------|
D|--------------------------------------------------------------------------------------|
A|--------------------------------------------------------------------------------------|
E|--------------------------------------------------------------------------------------|

Post-solo
e|--------------------------------------------------------------------------------------|
B|--------------------------------------------------------------------------------------|
G|--------------8-------------------6---------------------------------------------------|
D|--------------8-------------------6---------------------------------------------------|
A|--------------6-------------------4---------------------------------------------------|
E|----------------------------------4---------------------------------------------------|

End bit
e|--------------------------------------------------------------------------------------|
B|--------------------------------------------------------------------------------------|
G|-----------------6-----------------6--------------------------------------------------|
D|-----------------6-----------------6--8---------------7-------------------------------|
A|-----------------4-----------------3--8---------------7-------------------------------|
E|--------------------------------------6---------------4-------------------------------|

End
e|--------------------------------------------------------------------------------------|
B|--------------------------------------------------------------------------------------|
G|-----------------6-----------------6------------------6-------------------------------|
D|-----------------6-----------------6--8---------------6-------------------------------|
A|-----------------4-----------------3--8---------------4-------------------------------|
E|--------------------------------------6-----------------------------------------------|
and thats it.this is my first tab but im dead certain its right.
play it along to it and youll see what i mean.

            
            
Suggest correction
Creating personal tab
Creating personal tab
You can edit any tab online and save it as your Personal.

You can edit, replace or remove any tab part or add personal notes – all changes will be seen only by you.

Personal tabs can be accessed anytime from any device, even offline.
Learn more »
comments
print report bad tab
11 comments total. Showing first comments.
0 reply
extrememan 50 Apr 15, 2004 08:00 PM

good tab dude perfect

0 reply
StJimi 10 Oct 20, 2005 08:11 AM

not a bad tab. but the intro is off, and there are easier fingerings for it. for the part where its F,C# have your index finger do the F, and your middle finger do the C#. this makes the transition to D#,A# a lot easier. its all labeled for those of you who know less about music crap than i do :P.

|------F&C#-------| |-------D#,A#-------|
e|------------------------------------------------------4-4--|
B|--6-----6------6-----7-9-7-6---4-----4-----4-----4---------|
G|-----6-----6------6---------------5-----5-----5------------|
D|-----------------------------------------------------------|
A|-----------------------------------------------------------|
E|-----------------------------------------------------------|

e----------------------------2-2------1----------------------|
B--4---2-----2-----2-----2---------2-----4--4----------------|
G---------3-----3-----3--------------------------------------|
D------------------------------------------------------------|
G------------------------------------------------------------|
E------------------------------------------------------------|

+2 reply
StJimi 10 Oct 20, 2005 08:13 AM

just a quick fix, i hadnt noticed the labels had moved. *sheepish* lol

|------F&C#-------| |-------D#,A#-------|
e|------------------------------------------------------4-4--|
B|--6-----6------6-----7-9-7-6---4-----4-----4-----4---------|
G|-----6-----6------6---------------5-----5-----5------------|
D|-----------------------------------------------------------|
A|-----------------------------------------------------------|
E|-----------------------------------------------------------|

e----------------------------2-2------1----------------------|
B--4---2-----2-----2-----2---------2-----4--4----------------|
G---------3-----3-----3--------------------------------------|
D------------------------------------------------------------|
G------------------------------------------------------------|
E------------------------------------------------------------|

guest
Wanna post a correction for this tab? Suggest correction