Oops, an error
Loading. Please wait.

Glory Of Love tab

version 2
version 2

Whole song

Interactive

18,037 views 9 this week
1 commentread comment
1 2 3 4 5
x 4
add to favorites
×
Save as Personal and add changes to this tab that will be seen only by you. Learn more ›
×
You can save this tab as Personal to edit and correct it or add notes. All changes will be seen only by you. Learn more »
launch autoscroll
font size
0
reset
how to read this tab
guitar tuner
edit
Autoscroll
slow
fast
+/-
esc
set tempo
stop
Author
Song: Glory Of Love
Artist: New Found Glory
Ear Tabber: Elvin Hayes Gentiles
School: Parañaque National High School (DOST)

Verse:
e|---------------------------|
B|---------------------------|
G|--5~~-------55------55-----|
D|--5~~--5~~--55--33--55-55--|
A|--3~~--5~~--33--33--33-55--|
E|-------3~~------11-----33--|
(continued)
e|------------------------------------------|
B|------------------------------------------|
G|--55555555----------------------88888888--|
D|--55555555--33333333--88888888--88888888--|
A|--33333333--33333333--88888888--66666666--|
E|------------11111111--66666666------------|
(continued)
e|------------------------------------------|
B|------------------------------------------|
G|------------------------------------------|
D|--66666666--88888888--66666666--88888888--| 2x
A|--66666666--88888888--66666666--88888888--|
E|--44444444--66666666--44444444--66666666--|

Chorus:
e|------------------------------------------|
B|------------------------------------------|
G|--55555555------------55555555------------|
D|--55555555--33333333--55555555--55555555--|
A|--33333333--33333333--33333333--55555555--|
E|------------11111111------------33333333--|
(continued)
e|------------------------------------------|
B|------------------------------------------|
G|--55555555------------77777777------------|
D|--55555555--33333333--77777777--55555555--|
A|--33333333--33333333--55555555--55555555--|
E|------------11111111------------33333333--|
(continued)
e|------------------------------------------|
B|------------------------------------------|
G|------------77777777--55555555--99999999--|
D|--77777777--77777777--55555555--99999999--|
A|--77777777--55555555--33333333--77777777--|
E|--55555555--------------------------------|
(continued)
e|----------------------------------------------------------------------|
B|----------------------------------------------------------------------|
G|------------77777777------------55555555------------------------------|
D|--77777777--77777777--55555555--55555555--33333333--5555555555555555--|
A|--77777777--55555555--55555555--33333333--33333333--5555555555555555--|
E|--55555555------------33333333------------11111111--3333333333333333--|

Verse:
e|---------------------------|
B|---------------------------|
G|--5~~~~-----55------55-----|
D|--5~~~~-----55--33--55-55--|
A|--3~~~~-----33--33--33-55--|
E|----------------11-----33--|
(continued)
e|------------------------------------------|
B|------------------------------------------|
G|--55555555----------------------88888888--|
D|--55555555--33333333--88888888--88888888--|
A|--33333333--33333333--88888888--66666666--|
E|------------11111111--66666666------------|
(continued)
e|------------------------------------------|
B|------------------------------------------|
G|------------------------------------------|
D|--66666666--88888888--66666666--88888888--| 
A|--66666666--88888888--66666666--88888888--|
E|--44444444--66666666--44444444--66666666--|

Chorus:
e|------------------------------------------|
B|------------------------------------------|
G|--55555555------------55555555------------|
D|--55555555--33333333--55555555--55555555--|
A|--33333333--33333333--33333333--55555555--|
E|------------11111111------------33333333--|
(continued)
e|------------------------------------------|
B|------------------------------------------|
G|--55555555------------77777777------------|
D|--55555555--33333333--77777777--55555555--|
A|--33333333--33333333--55555555--55555555--|
E|------------11111111------------33333333--|
(continued)
e|------------------------------------------|
B|------------------------------------------|
G|------------77777777--55555555--99999999--|
D|--77777777--77777777--55555555--99999999--|
A|--77777777--55555555--33333333--77777777--|
E|--55555555--------------------------------|
(continued)
e|----------------------------------------------|
B|----------------------------------------------|
G|------------77777777------------555555555555--|
D|--77777777--77777777--55555555--555555555555--|
A|--77777777--55555555--55555555--333333333333--|
E|--55555555------------33333333----------------|

Bridge:
e|------------------------------------------|
B|------------------------------------------|
G|--------------------------------88888888--|
D|--33333333--66666666--88888888--88888888--|
A|--33333333--66666666--88888888--66666666--|
E|--11111111--44444444--66666666------------|
(continued)
e|----------------------------------------------------------------|
B|----------------------------------------------------------------|
G|----------------------5555--------------5555--------------------|
D|--33333333--66666666--5555--3333--8888--5555--5555555555555555--|
A|--33333333--66666666--3333--3333--8888--3333--5555555555555555--|
E|--11111111--44444444--------1111--6666--------3333333333333333--|

Chorus: (Clap only)
Then.....
e|------------|
B|------------|
G|------------|
D|--55555555--|
A|--55555555--|
E|--33333333--|

Final Chorus:
e|------------------------------------------|
B|------------------------------------------|
G|--55555555------------55555555------------|
D|--55555555--33333333--55555555--55555555--|
A|--33333333--33333333--33333333--55555555--|
E|------------11111111------------33333333--|
(continued)
e|------------------------------------------|
B|------------------------------------------|
G|--55555555------------77777777------------|
D|--55555555--33333333--77777777--55555555--|
A|--33333333--33333333--55555555--55555555--|
E|------------11111111------------33333333--|
(continued)
e|------------------------------------------|
B|------------------------------------------|
G|------------77777777--55555555--99999999--|
D|--77777777--77777777--55555555--99999999--|
A|--77777777--55555555--33333333--77777777--|
E|--55555555--------------------------------|
(continued)
e|----------------------------------------------|
B|----------------------------------------------|
G|------------77777777------------555555555555--|
D|--77777777--77777777--55555555--555555555555--| 3x
A|--77777777--55555555--55555555--333333333333--|
E|--55555555------------33333333----------------|

enjoy........


Suggest correction
Creating personal tab
Creating personal tab
You can edit any tab online and save it as your Personal.

You can edit, replace or remove any tab part or add personal notes – all changes will be seen only by you.

Personal tabs can be accessed anytime from any device, even offline.
Learn more »
comments
print report bad tab
1 comment total.
0 reply
Bair 2,226 Dec 09, 2012 10:45 AM

Everything sounds perfect other than that E you have in the chorus. Sounds like it should be a G to me.

guest
You may want to rate the tab now too:
select rating
Wanna post a correction for this tab? Suggest correction