Oops, an error
Loading. Please wait.

Hold My Hand tab

version 1
version 1

Whole song

Interactive

23,816 views 9 this week
7 commentsread comments
1 2 3 4 5
x 11
add to favorites
×
Save as Personal and add changes to this tab that will be seen only by you. Learn more ›
×
You can save this tab as Personal to edit and correct it or add notes. All changes will be seen only by you. Learn more »
launch autoscroll
font size
0
reset
how to read this tab
guitar tuner
edit
Autoscroll
slow
fast
+/-
esc
set tempo
stop
Author
-------------------------------------------------------------------------------
                             Hold My Hand - New Found Glory
-------------------------------------------------------------------------------
Tabbed by: bloodred16
Email: happytreefriends_firstblood@hotmail.com

This is another song leaked by NFG from there album "Coming Home" out in September!
it's a great song!
 
Tuning: Standard (EADGBe)

Intro
  Rhy. Fig. 1                                     End Rhy. Fig. 1 (x2)
e|---------------------------------------------------------------------------|
B|---------------------------------------------------------------------------|
G|---------------------------------------------------------------------------|
D|---------------------------------------------------------------------------|
A|9-9-9-9-9-9-9-9-9-9-9-9-9-9-2-2-6-6-6-6-6-6-6-6-6-6-6-6-6-6-2-2------------|
E|7-7-7-7-7-7-7-7-7-7-7-7-7-7-0-0-4-4-4-4-4-4-4-4-4-4-4-4-4-4-0-0------------|
  PM------------------------------------------------------------|

Verse - Rhy. Fig. 1 (x3) then play Rhy. Fig. 2

  Rhy. Fig. 2                                     End Rhy. Fig. 2
e|---------------------------------------------------------------------------|
B|---------------------------------------------------------------------------|
G|---------------------------------------------------------------------------|
D|------------------------------------------------6-6-6-6-6-6-6-6------------|
A|9-9-9-9-9-9-9-9-9-9-9-9-9-9-2-2-6-6-6-6-6-6-6-6-6-6-6-6-6-6-6-6------------|
E|7-7-7-7-7-7-7-7-7-7-7-7-7-7-0-0-4-4-4-4-4-4-4-4-4-4-4-4-4-4-4-4------------|
  PM--------------------------------------------|

  Pre-Chorus
  "you smell like, how angels ought to smell..."
e|---------------------------------------------------------------------------|
B|---------------------------------------------------------------------------|
G|---------------------------------------------------------------------------|
D|2-2-2-2--2--2--2--6-6--4-4-4---4----4--4-------9--2-2-2-2--2--2--2--6-6----|
A|2-2-2-2--2--2--2--6-6--4-4-4-2-4--2-4--4--4/6--9--2-2-2-2--2--2--2--6-6----|
E|0-0-0-0--0--0--0--4-4--2-2-2-0-2--0-2--2--2/4--7--0-0-0-0--0--0--0--4-4----|
                                            PM|

e|---------------------------------------------------------------------------|
B|---------------------------------------------------------------------------|
G|---------------------------------------------------------------------------|
D|4-4-4---4----4--4----------------------------------------------------------|
A|4-4-4-2-4--2-4--4--4/6-----------------------------------------------------|
E|2-2-2-0-2--0-2--2--2/4-----------------------------------------------------|
                     PM|

Chorus
  "So hold my hand..."
e|---------------------------------------------------------------------------|
B|---------------------------------------------------------------------------|
G|---------------------------------------------------------------------------|
D|9--9-9-9-9-9-9-9-9-9-9-9-9-9-9--6--6-6-6-6-6-6-6-6-6-6-6-6-6-6--4--4-4-4-4-|
A|9--9-9-9-9-9-9-9-9-9-9-9-9-9-9--6--6-6-6-6-6-6-6-6-6-6-6-6-6-6--4--4-4-4-4-|
E|7--7-7-7-7-7-7-7-7-7-7-7-7-7-7--4--4-4-4-4-4-4-4-4-4-4-4-4-4-4--2--2-2-2-2-|

e|---------------------------------------------------------------------------|
B|---------------------------------------------------------------------------|
G|---------------------------------------------------------------------------|
D|4-4-4-4-4-4--------2--2-2--------2--2-2------------------------------------|
A|4-4-4-4-4-4--------2--2-2--------2--2-2------------------------------------|
E|2-2-2-2-2-2-2-/-4--0--0-0-2-/-4--0--0-0-2-/-4------------------------------|

Verse
e|---------------------------------------------------------------------------|
B|---------------------------------------------------------------------------|
G|---------------------------------------------------------------------------|
D|9--------------------------------------------------------------------------|
A|9--9-9-9-9-9-9-9-9-9-9-9-9-2-2-6-6-6-6-6-6-6-6-6-6-6-6-6-6-2-2-------------|
E|7--7-7-7-7-7-7-7-7-7-7-7-7-0-0-4-4-4-4-4-4-4-4-4-4-4-4-4-4-0-0-------------|
     PM--------------------------------------------------------|

Rhy. Fig. 1 (x2)
Rhy. Fig. 2
Pre-Chorus
Chorus (x2)

Interlude
  "So lets go..."    |------------Riff A------------| (x2)
e|---------------------------------------------------------------------------|
B|-------------------------7-------------------------------------------------|
G|-------------------8-6-----8-6h8p6--8-6-----8-6----------------------------|
D|9----------------------9----------------9-6-----9-9------------------------|
A|9--------------------------------------------------------------------------|
E|7--------------------------------------------------------------------------|

Verse - Rhy. Fig. 1
        Rhy. Fig. 2
Pre-Chorus
Chorus (x2)

     "Do do do do do do do..."   *slowly slide up finger board
e|---------------------------------------------------------------------------|
B|---------------------------------------------------------------------------|
G|---------------------------------------------------------------------------|
D|------------------------------------6--6-6--6-6--6--6-6--6-6--4--4-4--4-4--|
A|9\-----------------------------4/*--6--6-6--6-6--6--6-6--6-6--4--4-4--4-4--|
E|7\-----------------------------2/---4--4-4--4-4--4--4-4--4-4--2--2-2--2-2--|

e|---------------------------------------------------------------------------|
B|---------------------------------------------------------------------------|
G|---------------------------------------------------------------------------|
D|4--4-4--4-4--2--2-2--2-2--2--2-2--2-2--------------------------------------|
A|4--4-4--4-4--2--2-2--2-2--2--2-2--2-2--------------------------------------|
E|2--2-2--2-2--0--0-0--0-0--0--0-0--0-0--------------------------------------|


Chorus - different ryhthm
e|¦¦-------------------------------------------------------------------------|
B|¦¦o------------------------------------------------------------------------|
G|¦¦-------------------------------------------------------------------------|
D|¦¦-9--9-9--9-9--9--9-9--9-9--6--6-6--6-6--6--6-6--6-6--4--4-4--4-4--4--4-4-|
A|¦¦o9--9-9--9-9--9--9-9--9-9--6--6-6--6-6--6--6-6--6-6--4--4-4--4-4--4--4-4-|
E|¦¦-7--7-7--7-7--7--7-7--7-7--4--4-4--4-4--4--4-4--4-4--2--2-2--2-2--2--2-2-|

       1.---------------------¬   2.---------------¬
e|------------------------------¦¦-------------------------------------------|
B|-----------------------------o¦¦-------------------------------------------|
G|------------------------------¦¦-------------------------------------------|
D|4-4--2--2-2--2-2--2--2-2--2-2-¦¦-2-----------------------------------------|
A|4-4--2--2-2--2-2--2--2-2--2-2o¦¦-2-----------------------------------------|
E|2-2--0--0-0--0-0--0--0-0--0-0-¦¦-0-----------------------------------------|
                                   |----------------


| /   slide up
| \   slide down
| h   hammer-on
| p   pull-off
| PM| Palm Mute
|1.¬  Play this bit first then repeat
|2.¬  Play this bit after the repeat
===============================================================================

            
            
Suggest correction
Creating personal tab
Creating personal tab
You can edit any tab online and save it as your Personal.

You can edit, replace or remove any tab part or add personal notes – all changes will be seen only by you.

Personal tabs can be accessed anytime from any device, even offline.
Learn more »
comments
print report bad tab
7 comments total. Showing first comments.
0 reply
CheesyChubs238 10 Aug 14, 2006 04:44 PM

dude, great tab. this song is great, thank you so much for tabing it out so nicely. 5 stars!!

0 reply
dontlookdownkid 280 Aug 26, 2006 04:47 PM

pretty simple song...but reguardless, it's a great tab..five stars from me dude

0 reply
gibsonman692 30 Jan 09, 2007 04:30 PM

great tab. geat song. the perfect Combo! 5*'s

guest
You may want to rate the tab now too:
select rating
Wanna post a correction for this tab? Suggest correction