Oops, an error
Loading. Please wait.

Make Your Move tab

4,532 views 3 this week
1 commentread comment
1 2 3 4 5
x 4
add to favorites
×
Save as Personal and add changes to this tab that will be seen only by you. Learn more ›
×
You can save this tab as Personal to edit and correct it or add notes. All changes will be seen only by you. Learn more »
launch autoscroll
font size
0
reset
how to read this tab
guitar tuner
edit
Autoscroll
slow
fast
+/-
esc
set tempo
stop
Author
Difficulty
-------------------------------------------------------------------------------
                             Make Your Move - New Found Glory
-------------------------------------------------------------------------------
Tabbed by: Letty
Email: Takeyourbooksandleave@hotmail.com

x - mute
\ - slide down
h - hammer on
fb - full bend

Tuning: Standard [e a d g b e]

intro: guitar 1

e|-------------|
B|--4-----4----|
G|----4--------|
D|4-----4---6-4|
A|-------------|
E|-------------|

guitar 2 ( 0:07 )

e|--7---6---4---2---0----------|
B|0---0---0---0---0---0-2h4-2-0|
G|-----------------------------|
D|-----------------------------|
A|-----------------------------|
E|-----------------------------|

Guitar 3 ( 0:07 )

e|-------------------------------|
B|0-0-0-0-0-0-0-0-0-0-0-0-2-4-2-0|
G|-------------------------------|
D|-------------------------------|
A|-------------------------------|
E|-------------------------------|



VERSE/PRE CHORUS

e|-------------|
B|--4-----4----|
G|----4--------|
D|4-----4---6-4|
A|-------------|
E|-------------|

  "I know you're losing sleep over me.."
e|---------------------------------------|
B|---------------------------------------|
G|4--------------------------------------|
D|4--------------------------------2-----| x4
A|2--------------------------------2-----|
E|---------------------------------0-----|



CHORUS

     "Move a little closer,    hold me tighter..."
e|----------------------------------------------|
B|----------------------------------------------|
G|4---------------------------------------------|x4
D|4-------------------------2-------------------|
A|2-------------------------2-------------------|
E|--------------------------0-------------------|



VERSE/PRE CHORUS

CHORUS




BRIDGE

GTR.1
  "Now      we're here, with the  lights turned low
e|------------------------------------------------|
B|------------------------------------------------|
G|------------------------------------------------|
D|-6-6-6-6-6-6-6-6-4-4-4-4-4-4-4-4-2-2-2-2-2-2-2-2|
A|-6-6-6-6-6-6-6-6-4-4-4-4-4-4-4-4-2-2-2-2-2-2-2-2|                
E|-4-4-4-4-4-4-4-4-2-2-2-2-2-2-2-2-0-0-0-0-0-0-0-0|

GTR.2                                                       }x2

e|------------------------------------------------|
B|7-7-7-7-7-7-7-7-4-4-4-4-4-4-4-4-2-2-2-2-2-2-2-2-|
G|------------------------------------------------|
D|------------------------------------------------|
A|------------------------------------------------|
E|------------------------------------------------|


  "It's up to you,                  now make your move "
GTR.1
e|---------------------------------------------------------------------------|
B|---------------------------------------------------------------------------|
G|---------------------------------------------------------------------------|
D|------6-6-6-6-6-6-6-6-6-6-6-6-6-6-6-6-2-2-2-2-2-2-2-2-2-2-2-2-2-2-2-2------|
A|------6-6-6-6-6-6-6-6-6-6-6-6-6-6-6-6-2-2-2-2-2-2-2-2-2-2-2-2-2-2-2-2------|
E|------4-4-4-4-4-4-4-4-4-4-4-4-4-4-4-4-0-0-0-0-0-0-0-0-0-0-0-0-0-0-0-0------|

GTR.2
e|---------------------------------------------------------------------------|
B|-------------------x-x-7-4-4fb------------------x-x-7-4-4\2-0--------------|
G|-------------------x-x--------------------------x-x------------------------|
D|-------------------x-x--------------------------x-x------------------------|
A|---------------------------------------------------------------------------|
E|---------------------------------------------------------------------------|

( 2:40 )
Gtr.1
e|--------------------------------------------------|
B|--------------------------------------------------|
G|4--4-4-----4-4-4--4-4-4-2--2-2-----2-2-2--2-2-2---| x2
D|4--4-4-----4-4-4--4-4-4-2--2-2-----2-2-2--2-2-2---|
A|2--2-2-----2-2-2--2-2-2-2--2-2-----2-2-2--2-2-2---|
E|------------------------0--0-0-----0-0-0--0-0-0---|

Gtr.2
e|--7---6---4---2---0----------|
B|0---0---0---0---0---0-2h4-2-0|
G|-----------------------------|
D|-----------------------------|
A|-----------------------------|
E|-----------------------------|

Gtr.3

e|-------------------------------|
B|0-0-0-0-0-0-0-0-0-0-0-0-2-4-2-0|
G|-------------------------------|
D|-------------------------------|
A|-------------------------------|
E|-------------------------------|




Chorus x2




outro

e|--7---6---4---2---0----------|
B|0---0---0---0---0---0-2h4-2-0|
G|-----------------------------| x4
D|-----------------------------|
A|-----------------------------|
E|-----------------------------|

            
            
Suggest correction
Creating personal tab
Creating personal tab
You can edit any tab online and save it as your Personal.

You can edit, replace or remove any tab part or add personal notes – all changes will be seen only by you.

Personal tabs can be accessed anytime from any device, even offline.
Learn more »
comments
print report bad tab
1 comment total.
0 reply
smorl7 303 Feb 22, 2008 06:33 PM

Good tab man, i cant belive no one has rated this or commented. even me till now. 5*

guest
You may want to rate the tab now too:
select rating
Wanna post a correction for this tab? Suggest correction