Oops, an error
Loading. Please wait.

My Heart Will Go On tab

version 4
version 4

Whole song

Interactive

26,401 views 6 this week
4 commentsread comments
1 2 3 4 5
x 12
add to favorites
×
Save as Personal and add changes to this tab that will be seen only by you. Learn more ›
×
You can save this tab as Personal to edit and correct it or add notes. All changes will be seen only by you. Learn more »
launch autoscroll
font size
0
reset
how to read this tab
guitar tuner
edit
Autoscroll
slow
fast
+/-
esc
set tempo
stop
Author
Difficulty
-----------------------------------------------------------------------------
                             My Heart Will Go On  - New Found Glory
-----------------------------------------------------------------------------
Tabbed by: EjAy FrAnciSco...
Email:ewannya2003@yahoo.com

Tuning:E-A-D-G-B-e (standard tuning)


intro:
guitar 1: Distorted/overdrive

e|------------------|------------------------------------------|
B|------------------|-(long feedback)--------------------------|
G|------------------|------------------------------------------|
D|-2~---------------|--------------------------------2~--------|
A|-2~---------------|--------------------------------2~--------|
E|-0~---------------|--------------------------------0~--------|
guitar 2: distorted/overdrive
                     cont.
e|------------------|------------------------------------------|
B|------------------|------------------------------------------|
G|------------------|------------------------------------------|
D|-2~---------------|-------------------9~-6s4-----------------|
A|-2~---------------|-7-9-9s11~-11p9-7h9-------7---------------|
E|-0~---------------|----------------------------9-7/0~--------|

guitar 1:
e|--------------------------------------------------|
B|--------------------------------------------------|
G|-----------------------------------9~-------------|
D|-----------------------------------9~-------------|
A|-----------------------------------7~-------------|
E|--------------------------------------------------|

guitar 2:
e|------------------------------------------------------|
B|------------------------------------------------------|
G|------------------------------------------------------|
D|-------------------9~-6-9-9s11~-11-9x-----------------|
A|-7-9-9s11~-11p9-7h9-----------------------------------|
E|------------------------------------------------------|

Verse:

guitar 1: x2
e|---------------------------------------------------------|
B|---------------------------------------------------------|
G|-999x-999x----------------------999x---------------------|
D|-999x-999x-999x-999x-777x 777x--999x-999x----------------|
A|-777x-777x-999x-999x-777x-777x--777x-999x----------------|
E|-----------777x-777x-555x-555x-------777x----------------|
   ..   ..   ..   ..   ..   ..    ..   ..

 -----------------------------------------------------------|
 -----------------------------------------------------------|
 -999x-999x-------------------------------------------------|
 -999x-999x-999x-999x-777x 777x--777--777-------------------|
 -777x-777x-999x-999x-777x-777x--777--777-------------------|
 -----------777x-777x-555x-555x--555--555-------------------|
  ..   ..   ..   ..   ..   ..    ..   ..

guitar 2 :
e|---------------------------------------------------------|
B|---------------------------------------------------------|
G|-999x-999x----------------------999x---------------------|
D|-999x-999x-999x-999x-777x 777x--999x-999x----------------|
A|-777x-777x-999x-999x-777x-777x--777x-999x----------------|
E|-----------777x-777x-555x-555x-------777x----------------|
   ..   ..   ..   ..   ..   ..    ..   ..

--------------------------------------------|---------------|
 -------------------------------------------|---------------|
 -999x-999x---------------------------------|---99----------|
 -999x-999x-999x-999x-777x 777x--777--777---|-9-99-99-------|
 -777x-777x-999x-999x-777x-777x--777--777---|-9-77-99-------|
 -----------777x-777x-555x-555x--555--555---|-7----77-------|
  ..   ..   ..   ..   ..   ..    ..   ..

Chorus:

guitar 1:x2
e|----------------------------|
B|----------------------------|
G|-9~--------9----9-----------|
D|-9~-9~-7-7-9-9~-9-9-77777---|
A|-7~-9~-7-7-7-9~-7-9-77777---|
E|----7~-5-5---7~---7-55555---|

guitar 2:
e|-------------------------------------------------------------------|
B|-------------------------------------------------------------------|
G|---9999--------------------9999------------------------------------|
D|---9999--9999--7777--9999--9999--9999--7777-11-11x-11b-9-9x-9b-----|
A|---7777--9999--7777--9999--7777--9999--7777-11-11x-----9-9x--------|
E|---------7777--5555--7777--------7777--5555--9--9x-----7-7x--------|

Verse 2 (play the verse 1 more faster)
        (note: listen for the strumming and pattern)

Chorus

Break Down

guitar 1 : idle

guitar 2 :
e|------------------------------------------------|
B|------------------------------------------------|
G|----------------------9999----------------------|
D|--11-11--11b-9-9-9b-9-9999----------------------|
A|--11-11------9-9----9-7777----------------------|
E|---9--9------7-7----7---------------------------|

solo:
guitar 1 : play the verse chord
guitar 2 :play the intro quite fast

Chorus

Ending
guitar 1 : play intro quite slow
guitar 2 : play intro quite slow


hope u enj0y it!

| b  bend
| .  palm mute
| s  slide
| h  hammer-on
| p  pull-off
| ~  let ring
| x  dead string
============================================================================

            
            
Suggest correction
Creating personal tab
Creating personal tab
You can edit any tab online and save it as your Personal.

You can edit, replace or remove any tab part or add personal notes – all changes will be seen only by you.

Personal tabs can be accessed anytime from any device, even offline.
Learn more »
comments
print report bad tab
4 comments total. Showing first comments.
0 reply
ilovemusic00 10 Jul 29, 2007 02:02 AM

great tab dude!this one's more accurate than the other

0 reply
Electric-Guitar 10 Oct 10, 2007 03:39 AM

pinoy ka tol wakoko323?

0 reply
Ollie J 10 Mar 03, 2008 12:21 AM

ausome

guest
You may want to rate the tab now too:
select rating
Wanna post a correction for this tab? Suggest correction