Oops, an error
Loading. Please wait.

Party On Apocalypse tab

1,138 views 30 this week
no commentswrite comment
1 2 3 4 5
x 4
add to favorites
×
Save as Personal and add changes to this tab that will be seen only by you. Learn more ›
×
You can save this tab as Personal to edit and correct it or add notes. All changes will be seen only by you. Learn more »
launch autoscroll
font size
0
reset
how to read this tab
guitar tuner
edit
Autoscroll
slow
fast
+/-
esc
set tempo
stop
Author
Difficulty
[Intro]
e|----------------------------------------|
B|----------------------------------------|
G|--9-8-8--8-6--8----9-8-8--8-6--4--------|
D|--9-9-9--9-6--9----9-9-9--9-6--4--------| x4
A|--7-6-6--6-4--6----7-6-6--6-4--2--------|
E|----------------------------------------|

[Verse]
e|----------------------------------|
B|----------------------------------|
G|--4-4-4--4---------4-4-4--4-------|
D|--4-4-4--4-2--2----4-4-4--4-6--2--| x4
A|--2-2-2--2-2--2----2-2-2--2-6--2--|
E|-----------0--0-------------4--0--|

Last 2 times the lead plays this chord over and over following the same strumming pattern above

e|-------------------------|
B|---12--------------------|
G|---x---------------------|
D|---9---------------------|
A|-------------------------|
E|-------------------------|

There's a fill before the pre-chorus that I can't figure out

[Pre-Chorus]
e|--------------------------------------------------------|
B|--------------------------------------------------------|
G|--------------------------------------------------------|
D|--4------6------2----------4------6------2-2-2-2-2------|
A|--4-[x8]-6-[x8]-2-[x16]----4-[x8]-6-[x8]-2-2-2-2-2------|
E|--2------4------0----------2------4------0-0-0-0-0------|
                                           PMPMPMPMPM 

Lead Guitar plays a really cool riff
e|---------------------------------------|
B|---------------------------------------|
G|------6h8---------6h8-------6h8--------| 
D|---9------9----9------9---9-----9------| x2
A|---------------------------------------|
E|---------------------------------------|

[Chorus]
e|------------------------------------|
B|------------------------------------|
G|---4--------------------------------|
D|---4-[x8]-2------6------2-----------| x4
A|---2------2-[x8]-6-[x8]-2-[x8]------|
E|----------0------4------0-----------|

[Intro]
e|----------------------------------------|
B|----------------------------------------|
G|--9-8-8--8-6--8----9-8-8--8-6--4--------|
D|--9-9-9--9-6--9----9-9-9--9-6--4--------| x2
A|--7-6-6--6-4--6----7-6-6--6-4--2--------|
E|----------------------------------------|

[Verse]
e|----------------------------------|
B|----------------------------------|
G|--4-4-4--4---------4-4-4--4-------|
D|--4-4-4--4-2--2----4-4-4--4-6--2--| x4
A|--2-2-2--2-2--2----2-2-2--2-6--2--|
E|-----------0--0-------------4--0--|

I can't figure out the lead part the first 2 times here

[Pre-Chorus]
e|--------------------------------------------------------|
B|--------------------------------------------------------|
G|--------------------------------------------------------|
D|--4------6------2----------4------6------2-2-2-2-2------|
A|--4-[x8]-6-[x8]-2-[x16]----4-[x8]-6-[x8]-2-2-2-2-2------|
E|--2------4------0----------2------4------0-0-0-0-0------|

[Chorus]
e|------------------------------------|
B|------------------------------------|
G|---4--------------------------------|
D|---4-[x8]-2------6------2-----------| x4
A|---2------2-[x8]-6-[x8]-2-[x8]------|
E|----------0------4------0-----------|

[Intro]
e|----------------------------------------|
B|----------------------------------------|
G|--9-8-8--8-6--8----9-8-8--8-------------|
D|--9-9-9--9-6--9----9-9-9--9-6--4--------| x1
A|--7-6-6--6-4--6----7-6-6--6-6--4--------|
E|----------------------------4--2--------|

[Bridge]
e|-----------------------------------------|
B|-----------------------------------------|
G|-----------------------------------------|
D|-----------------------------------------|x5
A|---4--6h8--------------------------------|
E|-----------4--4h6--2-2-2p1h--------------|


e|-----------------------------------------|
B|-----------------------------------------|
G|-----------------------------------------|
D|-------------------4-4-4-4-4-------------|x1
A|---4--6h8----------4-4-4-4-4-------------|
E|-----------4--4h6--2-2-2-2-2-------------|
                     PMPMPMPMPM

[Chorus]
e|------------------------------------|
B|------------------------------------|
G|---4--------------------------------|
D|---4-[x8]-2------6------2-----------| x8
A|---2------2-[x8]-6-[x8]-2-[x8]------|
E|----------0------4------0-----------|

[Intro]
e|----------------------------------------|
B|----------------------------------------|
G|--9-8-8--8-6--8----9-8-8--8-6--4--------|
D|--9-9-9--9-6--9----9-9-9--9-6--4--------| x3
A|--7-6-6--6-4--6----7-6-6--6-4--2--------|
E|----------------------------------------|

[Finish with]
e|----------------------------------------|
B|----------------------------------------|
G|--9-8-8--8-6--8----9-8-8--8-6-----------|
D|--9-9-9--9-6--9----9-9-9--9-6-----------| x1
A|--7-6-6--6-4--6----7-6-6--6-4-----------|
E|----------------------------------------|



************************************

| x   Dead note
| PM  Palm mute
| h   Hammer-on
| p   Pull-off
 

************************************

            
            
Suggest correction
Creating personal tab
Creating personal tab
You can edit any tab online and save it as your Personal.

You can edit, replace or remove any tab part or add personal notes – all changes will be seen only by you.

Personal tabs can be accessed anytime from any device, even offline.
Learn more »
comments
print report bad tab
guest
You may want to rate the tab now too:
select rating
Wanna post a correction for this tab? Suggest correction