Oops, an error
Loading. Please wait.

Selfless Tab

version 1
version 1

Intro

Whole song

Interactive

1,224 views 1 this week
3 commentsread comments
1 2 3 4 5
please rate
add to favorites
launch autoscroll
font size
0
reset
how to read this tab
guitar tuner
Autoscroll
slow
fast
+/-
esc
set tempo
stop
Help us to improve Ultimate-Guitar.com Take our survey!
×
Author
Difficulty
novice
Selfless [Intro] - New Found Glory

So I only first heard this song this morning (it came out yesterday) so this may be inaccurate but
hopefully you can work around it and get what you think sounds good :) 

e |-----------------------------------------------|  \
B |-----------------------------------------------|   |
G |-----------------------------------------------|   |
D |--2------2-----------2------2---------6-----4~-|   |
A |----2------2-----------2------2---2-4---2-4----|   |
E |------0~-----0---4-5-----0~-----0--------------|   |
                                                      |  x2
e |-----------------------------------------------|   |
B |-----------------------------------------------|   |
G |-----------------------------------------------|   |
D |--2------2-----------2------2---------4-----2~-|   |
A |----2------2-----------2------2---2-2---2-2----|   |
E |------0~-----0---4-5-----0~-----0--------------|  /

     v  v^v   v v^v   v v v
e |-----------------------------------------------|
B |-----------------------------------------------|
G |-----------------------------------------------|
D |--2--222---2-222---2-2-2-----------------------|
A |--2--222---2-222---2-2-2-----------------------|
E |--0--000---0-000---0-0-0-----------------------|
        PM-     PM-

I hope that sounds decent enough.
'Resurrection' - out October 7 on Hopeless Records!

===================================================

Tab by PlainOlBrod
Selfless by New Found Glory
Suggest correction
Give kudos to tab author, rate the tab!
1 2 3 4 5
comments
print report bad tab
3 comments total.
+1 reply
spaghetti_sauce 10 wrote on August 11 2014, 10:34 pm

Pretty close. I play it the following way to more easily keep my hand at one spot on the fretboard:

D |------------------------------------------------------6---------|
A |-7-------7--------------7---------7-------7-----------------9---|
E |---7-0-----7-0------0-7-------------7-0-----7-0---0-7---0-7-----|

D |----------------------------------------------------------------|
A |-7-------7--------------7---------7-------7-----------9-----7---|
E |---7-0-----7-0------0-7-------------7-0-----7-0---0-7---0-7-----|

0 reply
PlainOlBrod 54 wrote on August 12 2014, 08:51 am

Thanks! I did originally play it like that but I found this way easier for me personally.

0 reply
colby* 10 wrote on August 14 2014, 06:54 pm, edited at 06:55 pm

Thank you gentlemen! Check this out: there's an official video released aready:) http://hopelessrecords.com/resurrection/ You can see some of Chad's hand positions during the intro & verse riff. I'll look again closer. To me, right off the bat, his guitar sure sounds like it isin Drop D. Don't you think?

guest
You may want to rate the tab now too:
select rating
Please do not post tabs as comments. Select "correction" instead!