Oops, an error
Loading. Please wait.

Still The One intro tab

version 1
version 1

Intro

Whole song

1,540 views 1 this week
2 commentsread comments
1 2 3 4 5
2 more votes to show rating
add to favorites
×
Save as Personal and add changes to this tab that will be seen only by you. Learn more ›
×
You can save this tab as Personal to edit and correct it or add notes. All changes will be seen only by you. Learn more »
launch autoscroll
font size
0
reset
how to read this tab
guitar tuner
edit
Autoscroll
slow
fast
+/-
esc
set tempo
stop
Difficulty
intermediate
                      STILL THE ONE

Kapaero: Mr. Arjay Garcellano
song title: still the one by the band new found glory
Tuning: standard

i rate this 100% oo mga tol tama too....
kung my correction just email me at greenminded_09@yahoo.com.ph
rock rockan to the max.....

e-----------------------------------------------------------|
B-----------------------------------------------------------|
G-------------7h9---7h9------------7-----9s11---9----7----9-|
D-------7------------------7----9---------------------------|
A-----------------------------------------------------------|
E-----------------------------------------------------------|

pull off----p
hammer on---h
bend---------|b
slide--------|s


enjoy this tab.... play! why? because the music plays the band...
to all PG.... sabi kc ni ian cayabyab tama to..

            
            
Suggest correction
Creating personal tab
Creating personal tab
You can edit any tab online and save it as your Personal.

You can edit, replace or remove any tab part or add personal notes – all changes will be seen only by you.

Personal tabs can be accessed anytime from any device, even offline.
Learn more »
Give kudos to tab author, rate the tab!
1 2 3 4 5
comments
print report bad tab
2 comments total.
0 reply
elvin_guitar 397 May 08, 2007 02:39 AM

dude... diba mas tama ang intro kapag ganito..
e|---------------------|
B|---------------------|
G|----7h9-9----7h9-9~--|
D|---------------------|
A|--5--------5---------|
E|---------------------|

0 reply
BenFoffenbock 30 Oct 21, 2007 04:20 PM

I don't think New Found Glory play this song...

guest
Wanna post a correction for this tab? Suggest correction