Oops, an error
Loading. Please wait.

Too Good To Be tab

version 1
version 1

Whole song

Interactive

9,487 views 3 this week
4 commentsread comments
1 2 3 4 5
x 9
add to favorites
×
Save as Personal and add changes to this tab that will be seen only by you. Learn more ›
×
You can save this tab as Personal to edit and correct it or add notes. All changes will be seen only by you. Learn more »
launch autoscroll
font size
0
reset
how to read this tab
guitar tuner
edit
Autoscroll
slow
fast
+/-
esc
set tempo
stop
Author
i couldnt find a tab that was right and this is an easy song so i tabbed it myself....im 
positive its correct
You can figure out the strumming patterns....there pretty easy.

1st verse

e--------0---------0-----------------|
b--------0---------0-----------------|
g---6----1---------2-----------------|
d---6----2----4----2-----------------|
a---4----2----4----0-----------------|
E--------0----2----------------------|

Chorus

e--------0---------0----------0----------0--|
b--------0---------0----------0----------0--|
g---9----2----9----2----6--4--2----6--4--2--|
d---9----2----9----2----6--4--2----6--4--2--|
a---7----0----7----0----4--2--0----4--2--0--|
E-------------------------------------------|

Solo

e------------------------------------|
b------------------------------------|
g------9-11^13^11-9--------9-11/14-13|x2
d-9-11----------------9-11-----------|
a------------------------------------|
E------------------------------------|

e------------------------------------|
b-12---------------------------------|
g----13-11/13-13-------9-11^13^11-9--|
d-----------------9-11---------------|
a------------------------------------|
E------------------------------------|

e------------------------------------|
b-12---------------------------------|
g----13-11/13-13-11------------------|
d-------------------14-13-14-13-11-9-|
a------------------------------------|
E------------------------------------|


intro-(verse)-x2
1st verse-x4
chorus
2nd verse-x4
chorus
solo
chorus-x2

outro

e--------0-----0--|
b--------0-----0--|
g--6-----1-----2--|
d--6-----2-----2--|
a--4-----2-----0--|
E--------0--------|

            
            
Suggest correction
Creating personal tab
Creating personal tab
You can edit any tab online and save it as your Personal.

You can edit, replace or remove any tab part or add personal notes – all changes will be seen only by you.

Personal tabs can be accessed anytime from any device, even offline.
Learn more »
comments
print report bad tab
4 comments total. Showing first comments.
0 reply
mattsem 46 Dec 22, 2006 05:43 AM

nice one man! 100% correct!!
keep rocking

0 reply
ohhh shoot 189 Feb 26, 2007 09:17 PM

to make this 110% correct, play this after the second time of the verse:

let it ring out in the outro.

e|-------------------------
B|-------------------------
G|--1----------------------
D|--2----------------------
A|--0----------------------
E|-------------------------

+1 reply
dyingmind 10 Apr 13, 2007 09:37 PM

Everything's right except in the verse, that 2nd chord should be an A, not an E.

guest
You may want to rate the tab now too:
select rating
Wanna post a correction for this tab? Suggest correction