Oops, an error
Loading. Please wait.

Just Give Me A Reason Tab

908 views 6 this week
no commentswrite comment
1 2 3 4 5
please rate
add to favorites
launch autoscroll
font size
0
reset
how to read this tab
guitar tuner
Autoscroll
slow
fast
+/-
esc
set tempo
stop
Help us to improve Ultimate-Guitar.com Take our survey!
×
Author
nagz06 218
           #----------------------------------PLEASE NOTE--------------------------------#
           #This file is the author's own work and represents their interpretation of the#
           #song. You may only use this file for private study, scholarship, or research.#
           #-----------------------------------------------------------------------------#


Artist: Daniela Andrade & New Heights
Title: Just Give Me A Reason (Cover)
Site:  http://www.youtube.com/watch?v=uk2F0bs3HS8
Tabbed By: Francis Louwie Anthony A. Navos
Date: July 29.2013
Email: nagz06@yahoo.com
For comments or suggestions, feel free to Email me...





Tuning: Standard ( E A D G B e)
Capo: 1st fret


Legend:

( ) = Ghost note
 X  = Dead note


   VERSE 1:

   Right...      thief...    heart.  I your..         victim....
                                                                
E |--0---------|-------------------|--------------0------------------|
B |--0---------|-----------0-------|---------------------------------|
G |--1---------|--------2-----6----|--------2-----------------1------|
D |--2---------|-----2-------------|-----2-----------------2---------|
A |------------|--0-----------4----|--0--------0---------------------|
E |--0---------|-------------------|-------------------0---------0---|


   I let...  weren't..  pretty...      every touch...   them...
                                                                  
  |--0----|-------------------------|--------------0-----------------0-|
  |--0----|-----------0----------0--|----------------------------------|
  |--1----|--------2----------6-----|--------2-----------------1-------|
  |--2----|-----2----------6--------|-----2-----------------2----------|
  |-------|--0----------4-----------|--0--------0----------------------|
  |--0----|-------------------------|-------------------0---------0----|


REFRAIN 1:

                                                       
 you've..     in your          sleep       oh    oh
                                                          
----------------------------|--------------0-------------|
--------0-------------------|--------------------0-------|
-----6--------------2-------|--------4-------------------|
-----------------2----------|-----4----------------------|
--4-------------------------|--2--------2-----2----------|
--------------2-------------|----------------------------|



 Things...    say...           me...       oh    oh
                                                          
----------------------------|--------------0-------------|
----------------------------|--------------------0-------|
--------4-----------2-------|--------4-------------------|
-----2-----------2----------|-----4----------------------|
--4-------------------------|--2--------2-----2----------|
--------------2-------------|----------------------------|


 Tell me...   had...           enough      of    our
                                                          
----------------------------|--------------0-------------|
----------------------------|--------------------(0)-----|
--------4-----------2-------|--------4-------------------|
-----2-----------2----------|-----4----------------------|
--4-------------------------|--2--------2----------------|
--------------2-------------|----------------------------|


  love...     our...           love..........
                                                          
----------------------------|--------------0-------------|
-----------0----------------|--------------0-------------|
--------2-----------4-------|--------4-------------------|
-----2-----------4----------|-----4----------------------|
--0-------------------------|--2--------2----------------|
--------------4-------------|----------------------------|


CHORUS 1:

  Just give me a reason...    little bit's enough...
                                                          
--------------0--------0----|--------------0--------0----|
--------------------0-------|--------------------0-------|
--------9-------------------|--------9-------------------|
-----9----------------------|-----9----------------------|
----------------------------|--6--------6-----6----------|
--0--------0-----0----------|----------------------------|



  second we're not....         bent...     learn to....
                                                          
--------------0-------------|--------------------0-------|
--------------------0-------|-----------0----------------|
--------6-------------------|--------4--------4----------|
-----6----------------------|-----4----------------------|
--4--------4----------------|--------------2--------2----|
----------------------------|--4-------------------------|


  It's in the stars            written in the scars...
                                                          
--------------0--------0----|--------------0--------0----|
--------------------0-------|--------------------0-------|
--------9-------------------|--------9-------------------|
-----9----------------------|-----9----------------------|
----------------------------|--6--------6-----6----------|
--0--------0-----0----------|----------------------------|


          We're not            bent...       learn to...     
                                                           
--------------0-------------|-----------------------0----|
-----------------0----------|-----------0----------------|
--------6-------------------|--------4--------4----------|
-----6----------------------|-----4-----------4----------|
--4--------4----------------|-----------------2----------|
----------------------------|--4-------------------------|



                                                          
--------------0--------0----|
--------------------0-------|
--------9-------------------|
-----9----------------------|
----------------------------|
--0--------0-----0----------|



VERSE 2:

  
 I'm  Sorry...                 all of..    coming from...

|-------------0--------0----|----------------------------|
|-------------------0-------|-----------0----------------|
|-------9-------------------|--------9-----------9-------|
|----9----------------------|-----9-----------9----------|
|---------------------------|--0-------------------------|
|-0--------0-----0----------|--------------9--------9----|



I thought...                   fine...

--------------0--------0----|--------------0--------0----|
--------------------0-------|--------------------0-------|
--------9-------------------|--------9-------------------|
-----9----------------------|-----9----------------------|
--0--------0-----0----------|----------------------------|
----------------------------|--0--------0-----0----------|  

                                                        

  head is...                 dear we...   everything..           
                                                          
--------------0--------0---|----------------------------|
--------------------0------|-----------0----------------|
--------9------------------|--------9-----------9-------|
-----9---------------------|-----9-----------9----------|
---------------------------|--0-------------------------|
--0--------0-----0---------|--------------9--------9----|



 it's all in....               mind...

--------------0--------0----|--------------0--------0----|
--------------------0-------|--------------------0-------|
--------9-------------------|--------9-------------------|
-----9----------------------|-----9----------------------|
--0--------0-----0----------|----------------------------|
----------------------------|--0--------0-----0----------| 




REFRAIN 2:



 You've...    Real bad
 
-----------------------------|
--------0--------------------|
-----6--------------2--------|
-----------------2-----------|
--4--------------------0-----|
--------------2--------------|


 dreamm       oh    oh        used to...  close..
                                                          
--------------0-------------|----------------------------|
--------------------0-------|----------------------------|
--------4-------------------|--------4-----------2-------|
-----4----------------------|-----2-----------2----------|
--2--------2-----2----------|--4-------------------------|
----------------------------|--------------2-------------|


 me...       oh      oh       nothing...   empty..
                                                       
--------------0-------------|----------------------------|
--------------------0-------|----------------------------|
--------4-------------------|--------4-----------2-------|
-----4----------------------|-----2-----------2----------|
--2--------2-----2----------|--4-------------------------|
----------------------------|--------------2-------------|



  sheet     between           love...      our...
                                                          
--------------0-------------|----------------------------|
----------------------------|-----------0----------------|
--------4-----------4-------|--------2-----------4-------|
-----4-----------4----------|-----2-----------4----------|
--2--------2----------------|--0-------------------------|
--------------4-------------|--------------4-------------|


  
  love...            our...   love...      our...
                                                          
--------------0-------------|----------------------------|
----------------------------|-----------0----------------|
--------2-------------------|--------2-----------4-------|
-----2----------------------|-----2-----------4----------|
----------------------------|--0-------------------------|
--2--------2----------------|--------------4-------------|




 love.....
                                                       
--------------0--------0----|
--------------------0-------|
--------4-------------------|
-----4----------------------|
--2--------2-----2----------|
----------------------------|



CHORUS 2:


  Just give me a reason...    little bit's enough...
                                                          
--------------0--------0----|--------------0--------0----|
--------------------0-------|--------------------0-------|
--------9-------------------|--------9-------------------|
-----9----------------------|-----9----------------------|
----------------------------|--6--------6-----6----------|
--0--------0-----0----------|----------------------------|


  second we're not....         bent...     learn to....

--------------0-------------|-----------0-----------0----|
--------------------0-------|----------------------------|
--------6-------------------|--------4-----------4-------|
-----6----------------------|-----4-----------4----------|
--4--------4----------------|--------------2-------------|
----------------------------|--4-------------------------|



  It's in the stars            written in the scars...
                                                          
--------------0--------0----|--------------0--------0----|
--------------------0-------|--------------------0-------|
--------9-------------------|--------9-------------------|
-----9----------------------|-----9----------------------|
----------------------------|--6--------6-----6----------|
--0--------0-----0----------|----------------------------|

                                                          

  heart...                     bent...
                                                          
--------------0-------------|-----------0----------------|
--------------------0-------|----------------------------|
--------6-------------------|--------4-----------4-------|
-----6----------------------|-----4-----------4----------|
--4--------4----------------|--------------2--------2----|
----------------------------|--4-------------------------|
                                                      


    
BRIDGE:


 oh tears...

--------------0-------------|
--------------------0-------|
--------4-------------------|
-----2----------------------|
--4--------4-----4----------|
----------------------------|




           I'll fix              We're..
                                                          
--------------0-------------|--------------0-------------|
----------------------------|--------------------0-------|
--------4--------------4----|--------2-------------------|
-----4--------------4-------|-----2----------------------|
----------------------------|--0--------0-----0----------|
--4--------4-----4----------|----------------------------|



  but our....                       you're holding
                                                          
----------------------------|--------------0-------------|
-----------0----------------|--------------------0-------|
--------4-----------4-------|--------4-------------------|
-----4-----------4----------|-----2----------------------|
--2-----------2--------2----|--4--------4-----4----------|
----------------------------|----------------------------|




       
       You're pouring...          No nothing.. 
                                                          
--------------0-------------|--------------0-------------|
--------------------0-------|----------------------------|
--------4-------------------|--------2--------------2----|
-----4----------------------|-----2--------------2-------|
----------------------------|--0--------0-----0----------|
--4--------4-----4----------|----------------------------|



 bad...       as...           it seems..............  We'll come clean ~~~

                                                                  
----------------------------|--------------0-------------|
----------------------------|----------------------------|
--------2-----------4-------|----------------------------|
-----2-----------4----------|--------9--------------9----|
----------------------------|-----9--------------9-------|
--2--------2--4-------------|--7--------7-----7----------|



CHORUS 3a:


 Just give me                  little bit...
                                                          
--------------0--------0----|--------------0--------0----|
--------------------0-------|--------------------0-------|
--------9-------------------|--------9-------------------|
-----9----------------------|-----9----------------------|
----------------------------|--6--------6-----6----------|
--0--------0-----0----------|----------------------------|




 second                       bent....        learn to...
                                                                 
--------------0-------------|-----------0----------------|
-----------------0----------|----------------------------|
--------6-------------------|--------4--------------4----|
-----6----------------------|-----4--------------4-------|
--4--------4----------------|-----------------2----------|
----------------------------|--4-------------------------|



CHORUS 3b: (STRUMMING PART)



|------|-------|-------|---------|
|------|-------|-------|---------|
|-9----|--9----|--9----|--4--4---|   Repeat 5x
|-9----|--9----|--9----|--4--4---|
|-7----|--6----|--x----|--x--2---|
|-0----|--0----|--9----|--4--x---|



End with E:


|-------|
|-------|
|--1----|
|--2----|
|--2----|
|--0----|
Suggest correction new What's this?
You can suggest a correction to this tab. Community and Mods will review your correction and vote to approve or reject it.
comments
We did not receive enough feedback on this tab! Please rate:
print report bad tab
1 2 3 4 5
guest
You may want to rate the tab now too:
select rating
Please do not post tabs as comments. Select "correction" instead!