Oops, an error
Loading. Please wait.

Right Stuff tab

version 1
version 1

Whole song

8,084 views 1 this week
4 commentsread comments
1 2 3 4 5
x 7
add to favorites
×
Save as Personal and add changes to this tab that will be seen only by you. Learn more ›
×
You can save this tab as Personal to edit and correct it or add notes. All changes will be seen only by you. Learn more »
launch autoscroll
font size
0
reset
how to read this tab
guitar tuner
edit
Autoscroll
slow
fast
+/-
esc
set tempo
stop
Author
-----------------------------------------------------------------------------
            You Got It (The Right Stuff) - New Kids On The Block
-----------------------------------------------------------------------------

Tabbed by: Abdul Sameer
Email:abdulsameer99@hotmail.com

Tuning: Standard

Here is the tab played through the whole song!
e|---------------------------------------------------------------------------|
B|---------------------------------------------------------------------------|
G|---------------------------------------------------------------------------|
D|-----------------14------------------------14------------------------------|
A|------13--13----------13--11-----13--13----------13------------------------|
E|---------------------------------------------------------------------------|

Keep Playing the Right Stuff Baby!

            
            
Suggest correction
Creating personal tab
Creating personal tab
You can edit any tab online and save it as your Personal.

You can edit, replace or remove any tab part or add personal notes – all changes will be seen only by you.

Personal tabs can be accessed anytime from any device, even offline.
Learn more »
comments
print report bad tab
4 comments total. Showing first comments.
0 reply
Kyle_Klus 20 Aug 23, 2005 08:00 PM

You smoke the crack pipe.

NEW KIDS RULE!!!!!11111ONEONEONEONE

0 reply
Whoabot 7,154 Sep 05, 2009 06:16 PM

Uh. Did you even try playing this before aborting this horrible "tab" all over the Internet? This isn't even close to being right.

+1 reply
Whoabot 7,154 Sep 05, 2009 06:17 PM

E S E S E E E Q E S E S E q Q
|-----------------------|---------------------|
|-----------------------|---------------------|
|-----------------------|---------------------|
|-----------13-12-------|-----------13-12-----|
|-11---11---------13----|-11---11-------------|
|-----------------------|---------------------|

E S E S E E E q E E q q Q
|------------------------|------------------|
|------------------------|------------------|
|------------------------|------------------|
|-----------13-12--------|------10----------|
|-11---11---------13-11--|---11-----13------|
|------------------------|------------------|

Here. You're WELCOME.

guest
You may want to rate the tab now too:
select rating
Wanna post a correction for this tab? Suggest correction