Oops, an error
Loading. Please wait.

Laid Tab

version 1
version 1

Whole song

5,562 views 1 this week
4 commentsread comments
1 2 3 4 5
accurate
x 4
add to favorites
launch autoscroll
font size
0
reset
how to read this tab
guitar tuner
Autoscroll
slow
fast
+/-
esc
set tempo
stop
Help us to improve Ultimate-Guitar.com Take our survey!
×
Author
Difficulty
Tuning
novice
D A D G B E
----------------------------------------------------------------------------
                             Laid - New Medicine
----------------------------------------------------------------------------
Tabbed by: bigLanky34
Email: bigLanky34@gmail.com

Tuning: Standard/Drop D (DADGBE)

Intro
e|-------------------------------------------------------|
B|-------------------------------------------------------|
G|------9-7------------9-7------------9-7-------3-3-2-2--|
D|-2-2------9-----5-5------9-----7-7------9-----3-3-2-2--|
A|-2-2------------5-5------------7-7------------5-5-4-4--|
E|-2-2------------5-5------------7-7---------------------|

Verse
e|------------------------------|
B|------------------------------|
G|------------------------------|
D|-2-2-----2-2-----2-2-----3-3--|
A|-2-2-----2-2-----2-2-----3-3--|
E|-2-2-----2-2-----2-2-----3-3--|

Pre Chorus
e|-----------|
B|-----------|
G|-----------|
D|-3-3-3-3---|
A|-3-3-3-3---|
E|-3-3-3-3---|

Chorus
e|----------------------------------------------|
B|----------------------------------------------|
G|-------------3-3-3-3-----------------7-7-7-7--|
D|-2-2-2-2-----3-3-3-3-----5-5-5-5-----7-7-7-7--|
A|-2-2-2-2-----5-5-5-5-----5-5-5-5-----5-5-5-5--|
E|-2-2-2-2-----------------5-5-5-5--------------|

Post Chorus
e|------------------------------|
B|------------------------------|
G|------------------------------|
D|-2-2-----5-5-----7-7-----3-3--|
A|-2-2-----5-5-----7-7-----3-3--|
E|-2-2-----5-5-----7-7-----3-3--|

Interlude
e|------------------------------------------------|
B|------------------------------------------------|
G|------------------------------------------------|
D|-9-9-9-9-9-9-9-9-----10-10-10-10-10-10-10-10----|
A|-9-9-9-9-9-9-9-9-----10-10-10-10-10-10-10-10----|
E|-9-9-9-9-9-9-9-9-----10-10-10-10-10-10-10-10----|

e|-----------------------------------------|
B|-----------------------------------------|
G|-----------------------------------------|
D|-5-5-5-5-5-5-5-5-----0-0-0-0-0-0-0-0-----|
A|-5-5-5-5-5-5-5-5-----0-0-0-0-0-0-0-0-----|
E|-5-5-5-5-5-5-5-5-----0-0-0-0-0-0-0-0-----|


************************************

| /   slide up
| \   slide down
| h   hammer-on
| p   pull-off
| ~   vibrato
| +   harmonic
| x   Mute note
| b   Bend
| pb  Pre-bend
| br  Bend release
| pbr Pre-bend release
| brb Bend release bend

************************************
Suggest correction new What's this?
You can suggest a correction to this tab. Community and Mods will review your correction and vote to approve or reject it.
comments
print report bad tab
4 comments total. Showing first comments.
+1 reply
coltonpa 35 wrote on November 7 2010, 02:02 am

Intro
e|-------------------------------------------------------|
B|-------------------------------------------------------|
G|------9-7------------9-7------------9-7-------5-5-4-4--|
D|-2-2------9-----5-5------9-----7-7------9-----5-5-4-4--|
A|-2-2------------5-5------------7-7------------3-3-2-2--|
E|-2-2------------5-5------------7-7---------------------|
had the chords upsidown lol great tan

0 reply
coltonpa 35 wrote on November 7 2010, 02:03 am

*i meant tab

0 reply
wolfhead13 41 wrote on March 2 2011, 01:32 am

i dont think that its played in drop d but good job sounding it out thanks!

guest
You may want to rate the tab now too:
select rating
Please do not post tabs as comments. Select "correction" instead!