Oops, an error
Loading. Please wait.

Little Sister Bass Tab

195 views 1 this week
no commentswrite comment
1 2 3 4 5
2 more votes to show rating
add to favorites
launch autoscroll
font size
0
reset
guitar tuner
Autoscroll
slow
fast
+/-
esc
set tempo
stop
Help us to improve Ultimate-Guitar.com Take our survey!
×
Difficulty
novice
Note: Elipses indicate playing multiple of the same note and tilde's mean let the note ring.

G |--1~------|  Comes in at 6 seconds.
D |----------|
A |----------|
E |----------|

Part A
G |-1-0------|
D |-----1----|  x6
A |-------3--|
E |----------|

Part B
G |-5h8-0-1p0------|
D |-----------1----| (bass fill)
A |-------------3--|
E |----------------|

Play A x4

Part C
G |-1--------1---0~-|
D |---1--------0----|
A |-----1-----------|
E |-----------------|

Part D
G |----------1...1--------|
D |------1...-------3...--| x4 (Noodle around with 
A |-3...3-----------------|       picking patterns)
E |-----------------------|

Break

Play: B, Ax4, C, Dx4 (Finish D with {A |--3333--|})

Part E
G |-1-1-1-1-100-0-0--5---5---------|
D |--------------------------------|
A |----------------3---3---311-1-1-|
E |--------------------------------|

G |-1-1-1-1-100-0-0--------1-1-1-1-100-0-0--------|
D |----------------1...--------------------3...---|
A |--------------------3...-----------------------|
E |-----------------------------------------------|

Play: C, D (Last 3 in D rings out last time)
Suggest correction
Give kudos to tab author, rate the tab!
1 2 3 4 5
comments
print report bad tab
guest
You may want to rate the tab now too:
select rating
Wanna post a correction for this tab? Suggest correction