Oops, an error
Loading. Please wait.

Little Sister Tab

1,436 views 1 this week
1 commentread comment
1 2 3 4 5
excellent!
x 3
add to favorites
launch autoscroll
font size
0
reset
how to read this tab
guitar tuner
Tab Pro tools
  • play this tab
  • loop segment
  • change instrument
  • show fretboard
  • metronome
×
Best way to learn
"Little Sister"
Autoscroll
slow
fast
+/-
esc
set tempo
stop
Contributor
Difficulty
Tuning
intermediate
D G C F A D
All right this is my first Tab. I'v been wanting to cover this song but i never really
have time to sit there and listen to this song overs to Tab out the entire song. So Im
gonna post what i already have and hopefully someone will finish what I'v started. If 
not i will eventually update it completed. I believe they play it on Drop C but I find it
easier to play on D tunning.( Just listen for the strumming patterns. I'll Post it for 
Guitar Pro 5 when completed.)

Intro
D||-----------------------|
A||-----------3-----------|
F||--------0--------------|  X4
C||-----3-----------------|
G||--1--------------------|
D||-----------------------|

verse   [ 0:12 ]
Rythem:
D||--------------------------|--------------------------|
A||-----------3-----------3--|-----------3-----------3--|
F||--------0-----------0-----|--------0-----------0-----|
C||-----3-----------3--------|-----3-----------3--------|
G||--1-----------0-----------|--------------------------|
D||--------------------------|--3-----------1-----------|

Lead
D||--------------------|
A||--10/11-------------|
F||--------12-10-------|
C||--------------12----|
G||--------------------|
D||--------------------|


Pre-Chorus [ 0:46 ]

               PH  PH          PM
D||------------8----------------------|
A||----------------8------------------|
F||--3--2-------------3--2------------|
C||--3--2--5----------3--2-----7------|
G||--1--0--5----------1--0-----7-X16--|
D||--------3-------------------5------|


Chorus  [ 0:59 ]
D||------------------|
A||------------------|
F||--7---10----------|
C||--7---10----8--5--| X4
G||--5----8----8--5--|
D||------------6--3--|

[Verse]
[Pre-Chorus]
[Chorus]

Bridge  [ 2:20
Rythem:
D||-------------------|
A||-------------------|
F||-------------------|
C||--7/8---7--5--3----|
G||--7/8---7--5--3----|
D||--5/6---5--3--1----|

Lead:
D||-----------------|
A||-----------------|
F||-----------------|
C||--10--12---14----| the lead also plays more but i cant hear it too well.
G||---x---x----x----|
D||---8--10---12----|

[Pre-Chorus]
[Chorus]

Outro
D||--------------------------|--------------------------|
A||-----------3-----------3--|-----------3-----------3--|
F||--------0-----------0-----|--------0-----------0-----|
C||-----3-----------3--------|-----3-----------3--------|
G||--1-----------0-----------|--------------------------|
D||--------------------------|--3-----------1-----------|

End On
D||------|
A||------|
F||--3---|
C||--3---|
G||--1---|
D||------|
comments
We did not receive enough feedback on this tab! Please rate:
print report bad tab
1 2 3 4 5
1 comment total.
0 reply
patricio.ortiz2 wrote on May 6 2013, 02:45 pm

Very nice tab, it sounds quite good although is the only one I found

I want to post or [tab]
guest
You may want to rate the tab now too:
select rating
Please do not post tabs as comments. Select "correction" instead!