Oops, an error
Loading. Please wait.

Resolve To Fight Tab

1,149 views 1 this week
no commentswrite comment
1 2 3 4 5
please rate
add to favorites
launch autoscroll
font size
0
reset
how to read this tab
guitar tuner
Autoscroll
slow
fast
+/-
esc
set tempo
stop
Help us to improve Ultimate-Guitar.com Take our survey!
×
Contributor
Difficulty
Tuning
js81221 229
novice
D A D G B E
New Medicine
"Resolve to Fight"
Drop D Tuning


e|------------------------------------------------------------|
B|------------------------------------------------------------|
G|---------------------------Repeat as necessary--------------|
D|---------------[-4-4-4-4-4-4-4-444-0-0-0-000-3-3-3-333---]--|
A|---------------[-4-4-4-4-4-4-4-444-0-0-0-000-3-3-3-333---]--|
D|-11--11-9-7-6--[-4-4-4-4-4-4-4-444-0-0-0-000-3-3-3-333---]--|
3rd and 4th times heavy distortion

Repeat for Verse

The lead guitar playing high notes adlibs around 10 and 11 on G-string.

Chorus
e|-------------------------------|
B|-------------------------------|
G|------7---9--------------------|
D|--4---7---9--7-7-7-7-6-6-6-6---|
A|--4---5---7--7-7-7-7-6-6-6-6---|
D|--4----------7-7-7-7-6-6-6-6---|

Verse
e|----------------------------------------------|
B|----------------------------------------------|
G|-------------Repeat as necessary--------------|
D|-[-4-4-4-4-4-4-4-444-0-0-0-000-3-3-3-333---]--|
A|-[-4-4-4-4-4-4-4-444-0-0-0-000-3-3-3-333---]--|
D|-[-4-4-4-4-4-4-4-444-0-0-0-000-3-3-3-333---]--|


Adlib 9th and 8th fret on A string.


Chorus
e|-------------------------------|
B|-------------------------------|
G|------7---9--------------------|
D|--4---7---9--7-7-7-7-6-6-6-6---|
A|--4---5---7--7-7-7-7-6-6-6-6---|
D|--4----------7-7-7-7-6-6-6-6---|


Solo
e|-----------------------------------------------------------------------|
B|-----------------------------------------------------------------------|
G|------9-9---------------9-9--------------------------------------------|
D|-9-11-----11-10----9-11-----11-10----------7-7-7-9b-9b-7---7-9---------|
A|----------------12----------------12---7-9---------------9-------------|
D|-----------------------------------------------------------------------|

e|--------------------------------------------------------------------|
B|-7---7-10-7---7------7---7-10-7---7---------------------------------|
G|---9--------9----------9--------9------------------------9----------|
D|---------------------------------------------7-7-7-9b-9b---9-7---9--|
A|-----------------------------------------7-9-------------------9----|
D|--------------------------------------------------------------------|

e|-----------------------------------------------------------|
B|---------------------------------------But last time add..-|
G|-[----------------------------------]--[-------------------|
D|-[-----------------7---9-9b-9-7-----]--[-7--9~~-7-6-4-2----|
A|-[4---7---9---11----------------9-x2]--[-------------------|
D|-----------------------------------------------------------|



e|----------------------------------------------|
B|----------------------------------------------|
G|-------------Repeat till the end--------------|
D|-[-4-4-4-4-4-4-4-444-0-0-0-000-3-3-3-333---]--|
A|-[-4-4-4-4-4-4-4-444-0-0-0-000-3-3-3-333---]--|
D|-[-4-4-4-4-4-4-4-444-0-0-0-000-3-3-3-333---]--|

But last measure, play:
e|--------------------------------------------|
B|--------------------------------------------|
G|--------------------------------------------|
D|-4-4-4-4-4-4-4-444-0-0-0-000-11-11-9-7-6-4--|
A|-4-4-4-4-4-4-4-444-0-0-0-000-11-11-9-7-6-4--|
D|-4-4-4-4-4-4-4-444-0-0-0-000-11-11-9-7-6-4--|

Submitted by js81221
comments
We did not receive enough feedback on this tab! Please rate:
print report bad tab
1 2 3 4 5
I want to post or [tab]
guest
You may want to rate the tab now too:
select rating
Please do not post tabs as comments. Select "correction" instead!