Oops, an error
Loading. Please wait.

51St State tab

version 1
version 1

Whole song

Interactive

514 views 9 this week
no commentswrite comment
1 2 3 4 5
3 more votes to show rating
add to favorites
×
Save as Personal and add changes to this tab that will be seen only by you. Learn more ›
×
You can save this tab as Personal to edit and correct it or add notes. All changes will be seen only by you. Learn more »
launch autoscroll
font size
0
reset
how to read this tab
guitar tuner
edit
Autoscroll
slow
fast
+/-
esc
set tempo
stop
51ST STATE

As recorded by New Model Army
(From the 1986 Album THE GHOST OF CAIN)

Words and Music by Ashley Cartwright, Jason Harris, Robert Heaton & Justin Sullivan

Transcribed by Slowhand


Gtr I (E A D G B E) - 'Acoustic Guitar'
Gtr II (E A D G B E) - 'Acoustic Guitar w/ capo 5th fret'
Gtr III (E A D G B E) - 'Electric Guitar'
Gtr IV (E A D G B E) - 'Electric Guitar'

 Intro
  Q=180
  F          Fsus2 F           Fsus2 F          Fsus2 F
 4/4
  Gtr I (Ac. Gtr.)
  Q  E E E E E E   Q   E E E E E E   Q  E E E E E E   E E E E +E  E E E
|-1--1-1-1-1-1-1-|-1---1-1-1-1-1-1-|-1--1-1-1-1-1-1-|-1-1-1-1-(1)-1------||
|-1--1-1-1-1-1-1-|-1---1-1-1-1-1-1-|-1--1-1-1-1-1-1-|-1-1-1-1-(1)-1-0-0--||
|-2--2-2-2-2-0-0-|-2---2-2-2-2-0-0-|-2--2-2-2-2-0-0-|-2-2-2-2-(2)-2-0-0--||
|-3--3-3-3-3-3-3-|-3---3-3-3-3-3-3-|-3--3-3-3-3-3-3-|-3-3-3-3-(3)-3-0-0--||
|-3--3-3-3-3-3-3-|-3---3-3-3-3-3-3-|-3--3-3-3-3-3-3-|-3-3-3-3-(3)-3-0-0--||
|-1--1-1-1-1-1-1-|-1---1-1-1-1-1-1-|-1--1-1-1-1-1-1-|-1-1-1-1-(1)-1------||
|
| Gtr II (Ac. Gtr. w/ capo 5th fret)
| Q  Q   E E E E   E E E E E E E E   Q  Q   E E E E   E E E E +E  E E E
|-3--3---3-3---3-|-x-x-x-3---x-x-x-|-3--3---3-3-3-3-|-x-3-x-3-(3)-3------||
|-1--1---1-1---1-|-1-1-1-1---1-1-1-|-1--1---1-1-1-1-|-1-1-1-1-(1)-1------||
|-0--0---0-0-0-0-|-0-0-0-0-0-0-0-0-|-0--0---0-0-0-0-|-0-0-0-0-(0)-0------||
|----------------|-----------------|----------------|--------------------||
|-3--3---3-3-3-3-|-3-3-3-3-3-3-3-3-|-3--3---3-3-3-3-|-3-3-3-3-(3)-3-0-0--||
|----------------|-----------------|----------------|---------------0-0--||


   1st Verse
    G                Am               F
    Q  Q   E E E E   Q  E E E E E E   Q   E E E E E E   E E E E +E  E E E
||-----------------|-0--0-0-0-0-0---|-1---1-1-1-1-1-1-|-1-1-1-1-(1)-1------|
||o-3--3-----3-3-0-|-1--1-1-1-1-1-0-|-1---1-1-1-1-1-1-|-1-1-1-1-(1)-1-0-0--|
||--0--0-----0-0-0-|-2--2-2-2-2-2-0-|-2---2-2-2-2-2-2-|-2-2-2-2-(2)-2-0-0--|
||--0--0---0-0-0-0-|-2--2-2-2-2-2-0-|-3---3-3-3-3-3-3-|-3-3-3-3-(3)-3-0-0--|
||o--------------0-|-0--0-0-0-0-0-0-|-3---3-3-3-3-3-3-|-3-3-3-3-(3)-3-0-0--|
||--3--3---3-3-3---|----------------|-1---1-1-1-1-1-1-|-1-1-1-1-(1)-1------|
|
|   Q  E E E E E E   Q  Q   E E E E   E E E E E E E E   Q   E E +E  E E E
||--5--5-5-5-5-5-0-|-0--0---0-0-0-0-|-3-3-3-3---3-3-3-|-3---3-3-(3)-3------|
||o-3--3-3-3-3-3-0-|-0--0---0-0-0-0-|-1-1-1-1---1-1-1-|-1---1-1-(1)-1------|
||--2--2-2-2-2-2-0-|--------------0-|-0-0-0-0-0-0-0-0-|-0---0-0-(0)-0------|
||--0--0-0-0-0-0---|-2--2---2-2-2---|-----------------|--------------------|
||o----------------|-2--2---2-2-2---|-3-3-3-3-3-3-3-3-|-3---3-3-(3)-3-0-0--|
||-----------------|-0--0---0-0-0---|-----------------|---------------0-0--|


  G                Am               F
  Q  E E E E E E   Q  E E E E E E   Q  E +E  E E E E   Q  E E +E  E E E
|----------------|-0--0-0-0-0-0---|-1--1-(1)-1-1-1-1-|-1--1-1-(1)-1-1----||
|-3--3-3---3-3-0-|-1--1-1-1-1-1-0-|-1--1-(1)-1-1-1-1-|-1--1-1-(1)-1-1-0-o||
|-0--0-0---0-0-0-|-2--2-2-2-2-2-0-|-2--2-(2)-2-2-2-2-|-2--2-2-(2)-2-2-0--||
|-0--0-0-0-0-0-0-|-2--2-2-2-2-2-0-|-3--3-(3)-3-3-3-3-|-3--3-3-(3)-3-3-0--||
|--------------0-|-0--0-0-0-0-0-0-|-3--3-(3)-3-3-3-3-|-3--3-3-(3)-3-3-0-o||
|-3--3-3-3-3-3---|----------------|-1--1-(1)-1-1-1-1-|-1--1-1-(1)-1-1----||
|
| Q  E E E E E E   Q  Q   E E E E   Q  E  E  E E E E   Q  E E +E  E E E
|-5--5-5-5-5-5-0-|-0--0---0-0-0-0-|-3--3--3----3-3-3-|-3--3-3-(3)-3------||
|-3--3-3-3-3-3-0-|-0--0---0-0-0-0-|-1--1--1----1-1-1-|-1--1-1-(1)-1-----o||
|-2--2-2-2-2-2-0-|--------------0-|-0--0--0--0-0-0-0-|-0--0-0-(0)-0------||
|-0--0-0-0-0-0---|-2--2---2-2-2---|------------------|-------------------||
|----------------|-2--2---2-2-2---|-3--3--3--3-3-3-3-|-3--3-3-(3)-3-0-0-o||
|----------------|-0--0---0-0-0---|------------------|--------------0-0--||


   Chorus
    Am                G
    Gtr III (El. Gtr. w/ dist.)
    Q  H.             Q  H.
||--5--5------------|-3--3------------|
||o-5--5------------|-3--3------------|
||--5--5------------|-4--4------------|
||--7--7------------|-5--5------------|
||o-7--7------------|-5--5------------|
||--5--5------------|-3--3------------|
|
|   Gtr IV (El. Gtr. w/ dist.)
|      PM---------|      PM---------|
|   Q  E  E E E E E   Q  E  E E E E E
||------------------|-----------------|
||o-----------------|-----------------|
||------------------|-----------------|
||--7--7--7-7-7-7-7-|-5--5--5-5-5-5-5-|
||o-7--7--7-7-7-7-7-|-5--5--5-5-5-5-5-|
||--5--5--5-5-5-5-5-|-3--3--3-3-3-3-3-|


  F
  Q  E E +H          +H        Q   Q
|-1--1-1-(1)-------|-(1)-------1---1-----||
|-1--1-1-(1)-------|-(1)-------1---1----o||
|-2--2-2-(2)-------|-(2)-------2---2-----||
|-3--3-3-(3)-------|-(3)-------3---3-----||
|-3--3-3-(3)-------|-(3)-------3---3----o||
|-1--1-1-(1)-------|-(1)-------1---1-----||
|
|    PM------------------------------|
| Q  E E  E  E E E    E  E E E E E E E
|------------------|---------------------||
|------------------|--------------------o||
|------------------|---------------------||
|-3--3-3--3--3-3-3-|--3--3-3-3-3-3-3-3---||
|-3--3-3--3--3-3-3-|--3--3-3-3-3-3-3-3--o||
|-1--1-1--1--1-1-1-|--1--1-1-1-1-1-1-1---||


  Am                G                 F
  Q  H.             Q  H.             Q  E E +H       +H..       E
|-5--5------------|-3--3------------|-1--1-1-(1)----|-(1)--------1-|
|-5--5------------|-3--3------------|-1--1-1-(1)----|-(1)--------1-|
|-5--5------------|-4--4------------|-2--2-2-(2)----|-(2)--------2-|
|-7--7------------|-5--5------------|-3--3-3-(3)----|-(3)--------3-|
|-7--7------------|-5--5------------|-3--3-3-(3)----|-(3)--------3-|
|-5--5------------|-3--3------------|-1--1-1-(1)----|-(1)--------1-|
|
|    PM---------|      PM---------|
| Q  E  E E E E E   Q  E  E E E E E   W               +W
|-----------------|-----------------|---------------|--------------|
|-----------------|-----------------|---------------|--------------|
|-----------------|-----------------|---------------|--------------|
|-7--7--7-7-7-7-7-|-5--5--5-5-5-5-5-|-3-------------|-(3)----------|
|-7--7--7-7-7-7-7-|-5--5--5-5-5-5-5-|-3-------------|-(3)----------|
|-5--5--5-5-5-5-5-|-3--3--3-3-3-3-3-|-1-------------|-(1)----------|


                            2nd Verse
                             G                Am
                          Gtr I
   W           +W            Q  Q   E E E E   Q  E E E E E E
|--1---------|-(1)--------||----------------|-0--0-0-0-0-0---|
|--1---------|-(1)--------||-3--3-----3-3-0-|-1--1-1-1-1-1-0-|
|--2---------|-(2)--------||-0--0-----0-0-0-|-2--2-2-2-2-2-0-|
|--3---------|-(3)--------||-0--0---0-0-0-0-|-2--2-2-2-2-2-0-|
|--3---------|-(3)--------||--------------0-|-0--0-0-0-0-0-0-|
|--1---------|-(1)--------||-3--3---3-3-3---|----------------|
|
|                         Gtr II
| +W           +W            Q  E E E E E E   Q  Q   E E E E
|------------|------------||-5--5-5-5-5-5-0-|-0--0---0-0-0-0-|
|------------|------------||-3--3-3-3-3-3-0-|-0--0---0-0-0-0-|
|------------|------------||-2--2-2-2-2-2-0-|--------------0-|
|-(3)--------|-(3)--------||-0--0-0-0-0-0---|-2--2---2-2-2---|
|-(3)--------|-(3)--------||----------------|-2--2---2-2-2---|
|-(1)--------|-(1)--------||----------------|-0--0---0-0-0---|


  F                                    G                  Am
  Q  E E E E E E   E E E E +E  E E E    Q   E E E E E E   Q  E E E E E E
|-1--1-1-1-1-1-1-|-1-1-1-1-(1)-1-----|------------------|-0--0-0-0-0-0---|
|-1--1-1-1-1-1-1-|-1-1-1-1-(1)-1-0-0-|--3---3-3---3-3-0-|-1--1-1-1-1-1-0-|
|-2--2-2-2-2-2-2-|-2-2-2-2-(2)-2-0-0-|--0---0-0---0-0-0-|-2--2-2-2-2-2-0-|
|-3--3-3-3-3-3-3-|-3-3-3-3-(3)-3-0-0-|--0---0-0-0-0-0-0-|-2--2-2-2-2-2-0-|
|-3--3-3-3-3-3-3-|-3-3-3-3-(3)-3-0-0-|----------------0-|-0--0-0-0-0-0-0-|
|-1--1-1-1-1-1-1-|-1-1-1-1-(1)-1-----|--3---3-3-3-3-3---|----------------|
|
| Q  E E E E E E   Q   E E  E  E E E    Q   E E E E E E   Q  Q   E E E E
|-3--3-3---3-3-3-|-3---3-3--3--3-----|--5---5-5-5-5-5-0-|-0--0---0-0-0-0-|
|-1--1-1---1-1-1-|-1---1-1--1--1-----|--3---3-3-3-3-3-0-|-0--0---0-0-0-0-|
|-0--0-0-0-0-0-0-|-0---0-0--0--0-----|--2---2-2-2-2-2-0-|--------------0-|
|----------------|-------------------|--0---0-0-0-0-0---|-2--2---2-2-2---|
|-3--3-3-3-3-3-3-|-3---3-3--3--3-0-0-|------------------|-2--2---2-2-2---|
|----------------|---------------0-0-|------------------|-0--0---0-0-0---|
|
| Gtr III
| W                E E E E  E  E E E   +W                 W
|----------------|-------------------|------------------|----------------|
|----------------|-------------------|------------------|----------------|
|----------------|-------------------|------------------|----------------|
|----------------|-------------0-2-0-|-(0)--------------|----------------|
|----------------|-----0-2--3--------|------------------|----------------|
|----------------|-1-3---------------|------------------|----------------|


  F                                     G                Am
  Q  E +E  E E E E   Q  E E +E  E E E   Q  Q   E E E E   Q  E E E E E E
|-1--1-(1)-1-1-1-1-|-1--1-1-(1)-1-1---|----------------|-0--0-0-0-0-0---|
|-1--1-(1)-1-1-1-1-|-1--1-1-(1)-1-1-0-|-3--3-----3-3-0-|-1--1-1-1-1-1-0-|
|-2--2-(2)-2-2-2-2-|-2--2-2-(2)-2-2-0-|-0--0-----0-0-0-|-2--2-2-2-2-2-0-|
|-3--3-(3)-3-3-3-3-|-3--3-3-(3)-3-3-0-|-0--0---0-0-0-0-|-2--2-2-2-2-2-0-|
|-3--3-(3)-3-3-3-3-|-3--3-3-(3)-3-3-0-|--------------0-|-0--0-0-0-0-0-0-|
|-1--1-(1)-1-1-1-1-|-1--1-1-(1)-1-1---|-3--3---3-3-3---|----------------|
|
| Q  E  E  E E E E   Q  E E  E  E E E   Q  E E E E E E   Q  Q   E E E E
|-3--3--3----3-3-3-|-3--3-3--3--3-----|-5--5-5-5-5-5-0-|-0--0---0-0-0-0-|
|-1--1--1----1-1-1-|-1--1-1--1--1-----|-3--3-3-3-3-3-0-|-0--0---0-0-0-0-|
|-0--0--0--0-0-0-0-|-0--0-0--0--0-----|-2--2-2-2-2-2-0-|--------------0-|
|------------------|------------------|-0--0-0-0-0-0---|-2--2---2-2-2---|
|-3--3--3--3-3-3-3-|-3--3-3--3--3-0-0-|----------------|-2--2---2-2-2---|
|------------------|--------------0-0-|----------------|-0--0---0-0-0---|


  F                                    G                  Am
  Q  E E E E E E   E E E E +E  E E E    Q   E E E E E E   Q  E E +E  E E E
|-1--1-1-1-1-1-1-|-1-1-1-1-(1)-1-----|------------------|-0--0-0-(0)-0-0-0-|
|-1--1-1-1-1-1-1-|-1-1-1-1-(1)-1-0-0-|--3---3-3---3-3-0-|-1--1-1-(1)-1-1-0-|
|-2--2-2-2-2-2-2-|-2-2-2-2-(2)-2-0-0-|--0---0-0---0-0-0-|-2--2-2-(2)-2-2-0-|
|-3--3-3-3-3-3-3-|-3-3-3-3-(3)-3-0-0-|--0---0-0-0-0-0-0-|-2--2-2-(2)-2-2-0-|
|-3--3-3-3-3-3-3-|-3-3-3-3-(3)-3-0-0-|----------------0-|-0--0-0-(0)-0-0---|
|-1--1-1-1-1-1-1-|-1-1-1-1-(1)-1-----|--3---3-3-3-3-3---|------------------|
|
| Q  E E E E E E   Q   E E  E  E E E    Q   E E E E E E   Q  E E +E  E E E
|-3--3-3---3-3-3-|-3---3-3--3--3-----|--5---5-5-5-5-5-0-|-0--0-0-(0)-0-0-0-|
|-1--1-1---1-1-1-|-1---1-1--1--1-----|--3---3-3-3-3-3-0-|-0--0-0-(0)-0-0-0-|
|-0--0-0-0-0-0-0-|-0---0-0--0--0-----|--2---2-2-2-2-2-0-|----------------0-|
|----------------|-------------------|--0---0-0-0-0-0---|-2--2-2-(2)-2-2---|
|-3--3-3-3-3-3-3-|-3---3-3--3--3-0-0-|------------------|-2--2-2-(2)-2-2---|
|----------------|---------------0-0-|------------------|-0--0-0-(0)-0-0---|
|
| Gtr III
| W                Q   Q    Q    E E   +W                 W
|----------------|-------------------|------------------|------------------|
|----------------|-------------------|------------------|------------------|
|----------------|-------------------|------------------|------------------|
|----------------|-3--------2------0-|-(0)--------------|------------------|
|----------------|-------------------|------------------|------------------|
|----------------|-----1---------1---|------------------|------------------|


                                     Chorus
  F                G                  Am                G
                                  Gtr III
  Q  E E E E E E   Q  E E E E E E     Q  H.             Q  H.
|-1--1-1-1-1-1-0-|-3--3-3-3-3-3-0-||--5--5------------|-3--3------------|
|-1--1-1-1-1-1-0-|-3--3-3-3-3-3-0-||o-5--5------------|-3--3------------|
|-2--2-2-2-2-2-0-|-0--0-0-0-0-0-0-||--5--5------------|-4--4------------|
|-3--3-3-3-3-3-0-|-0--0-0-0-0-0-0-||--7--7------------|-5--5------------|
|-3--3-3-3-3-3---|----------------||o-7--7------------|-5--5------------|
|-1--1-1-1-1-1---|-3--3-3-3-3-3---||--5--5------------|-3--3------------|
|
|                                 Gtr IV
|                                        PM---------|      PM---------|
| Q  E E E E E E   Q  E E E E E E     Q  E  E E E E E   Q  E  E E E E E
|-3--3-3-3-3-3-0-|-5--5-5-5-5-5-0-||------------------|-----------------|
|-1--1-1-1-1-1-0-|-3--3-3-3-3-3-0-||o-----------------|-----------------|
|-0--0-0-0-0-0-0-|-2--2-2-2-2-2-0-||------------------|-----------------|
|----------------|-0--0-0-0-0-0---||--7--7--7-7-7-7-7-|-5--5--5-5-5-5-5-|
|-3--3-3-3-3-3---|----------------||o-7--7--7-7-7-7-7-|-5--5--5-5-5-5-5-|
|----------------|----------------||--5--5--5-5-5-5-5-|-3--3--3-3-3-3-3-|


                                          Bridge
  F                                        Em                  F5
  Q  E E +H          +H        Q   Q    3x Q.    E +H          H       E E E E
|-1--1-1-(1)-------|-(1)-------1---1----||-------0-(0)-------|-----------------|
|-1--1-1-(1)-------|-(1)-------1---1---o||-------0-(0)-------|-----------------|
|-2--2-2-(2)-------|-(2)-------2---2----||-------0-(0)-------|-----------------|
|-3--3-3-(3)-------|-(3)-------3---3----||-2-----2-(2)-------|-3---------------|
|-3--3-3-(3)-------|-(3)-------3---3---o||-2-----2-(2)-------|-3-----------0-2-|
|-1--1-1-(1)-------|-(1)-------1---1----||-0-----0-(0)-------|-1-------1-3-----|
|
|    PM------------------------------|         PM----------------------------|
| Q  E E  E  E E E    E  E E E E E E E  3x Q   E E  E  E E E   E E E E E E E E
|------------------|--------------------||-------------------|-----------------|
|------------------|-------------------o||-------------------|-----------------|
|------------------|--------------------||-------------------|-----------------|
|-3--3-3--3--3-3-3-|--3--3-3-3-3-3-3-3--||-2---2-2--2--2-2-2-|-3-3-3-3-3-3-3-3-|
|-3--3-3--3--3-3-3-|--3--3-3-3-3-3-3-3-o||-2---2-2--2--2-2-2-|-3-3-3-3-3-3-3-3-|
|-1--1-1--1--1-1-1-|--1--1-1-1-1-1-1-1--||-0---0-0--0--0-0-0-|-1-1-1-1-1-1-1-1-|


                      Em                  F
  H..             E   Q.    E +H          Q.   E +H       +H.      +E  S S
|-----------------0-|-------0-(0)-------|------1-(1)----|-(1)------(1)-1-1--|
|-----------------0-|-------0-(0)-------|------1-(1)----|-(1)------(1)-1-1--|
|-----------------0-|-------0-(0)-------|------2-(2)----|-(2)------(2)-2-2--|
|-------------------|-2-----2-(2)-------|-3----3-(3)----|-(3)------(3)-3-3--|
|-3-----------------|-2-----2-(2)-------|-3----3-(3)----|-(3)------(3)-3-3--|
|-------------------|-0-----0-(0)-------|-1----1-(1)----|-(1)------(1)-1-1--|
|
| PM--------------|       PM----------|
| E   E E E E E E E   Q   E E  E  E E E   W               +W
|-------------------|-------------------|---------------|-------------------|
|-------------------|-------------------|---------------|-------------------|
|-------------------|-------------------|---------------|-------------------|
|-3---3-3-3-3-3-3-3-|-2---2-2--2--2-2-2-|-3-------------|-(3)---------------|
|-3---3-3-3-3-3-3-3-|-2---2-2--2--2-2-2-|-3-------------|-(3)---------------|
|-1---1-1-1-1-1-1-1-|-0---0-0--0--0-0-0-|-1-------------|-(1)---------------|


                             3rd Verse
                              G                Am
                          Gtr I
   W           +W             Q  Q   E E E E   Q  E E E E E E
|--1---------|-(1)--------||--3--3---3-3-3-0-|-0--0-0-0-0-0-0-|
|--1---------|-(1)--------||o-3--3---3-3-3-0-|-1--1-1-1-1-1-0-|
|--2---------|-(2)--------||--0--0---0-0-0-0-|-2--2-2-2-2-2-0-|
|--3---------|-(3)--------||--0--0---0-0-0-0-|-2--2-2-2-2-2-0-|
|--3---------|-(3)--------||o----------------|-0--0-0-0-0-0---|
|--1---------|-(1)--------||--3--3---3-3-3---|----------------|
|
|                         Gtr II
| +W           +W             Q  E E E E E E   Q  Q   E E E E
|------------|------------||--5--5-5-5-5-5-0-|-0--0---0-0-0-0-|
|------------|------------||o-3--3-3-3-3-3-0-|-0--0---0-0-0-0-|
|------------|------------||--2--2-2-2-2-2-0-|--------------0-|
|-(3)--------|-(3)--------||--0--0-0-0-0-0---|-2--2---2-2-2---|
|-(3)--------|-(3)--------||o----------------|-2--2---2-2-2---|
|-(1)--------|-(1)--------||-----------------|-0--0---0-0-0---|


  F                                      G                Am
  Q  E E E E E E   E E E E +E  E E E  3x Q  Q   E E E E   Q  E E +E  E E E
|-1--1-1-1-1-1-1-|-1-1-1-1-(1)-1-1-0--||-3--3---3-3-3-0-|-0--0-0-(0)-0-0-0-|
|-1--1-1-1-1-1-1-|-1-1-1-1-(1)-1-1-0-o||-3--3---3-3-3-0-|-1--1-1-(1)-1-1-0-|
|-2--2-2-2-2-2-2-|-2-2-2-2-(2)-2-2-0--||-0--0---0-0-0-0-|-2--2-2-(2)-2-2-0-|
|-3--3-3-3-3-3-3-|-3-3-3-3-(3)-3-3-0--||-0--0---0-0-0-0-|-2--2-2-(2)-2-2-0-|
|-3--3-3-3-3-3-3-|-3-3-3-3-(3)-3-3---o||----------------|-0--0-0-(0)-0-0---|
|-1--1-1-1-1-1-1-|-1-1-1-1-(1)-1-1----||-3--3---3-3-3---|------------------|
|
| Q  E E E E E E   Q   E E  E  E E E  3x Q  E E E E E E   Q  Q    E  E E E
|-3--3-3---3-3-3-|-3---3-3--3--3------||-5--5-5-5-5-5-0-|-0--0----0--0-0-0-|
|-1--1-1---1-1-1-|-1---1-1--1--1-----o||-3--3-3-3-3-3-0-|-0--0----0--0-0-0-|
|-0--0-0-0-0-0-0-|-0---0-0--0--0------||-2--2-2-2-2-2-0-|----------------0-|
|----------------|--------------------||-0--0-0-0-0-0---|-2--2----2--2-2---|
|-3--3-3-3-3-3-3-|-3---3-3--3--3-0-0-o||----------------|-2--2----2--2-2---|
|----------------|---------------0-0--||----------------|-0--0----0--0-0---|


                                     Chorus
  F                G                  Am                G
                                  Gtr III
  Q  E E E E E E   Q  E E E E E E     Q  H.             Q  H.
|-1--1-1-1-1-1-0-|-3--3-3-3-3-3-0-||--5--5------------|-3--3------------|
|-1--1-1-1-1-1-0-|-3--3-3-3-3-3-0-||o-5--5------------|-3--3------------|
|-2--2-2-2-2-2-0-|-0--0-0-0-0-0-0-||--5--5------------|-4--4------------|
|-3--3-3-3-3-3-0-|-0--0-0-0-0-0-0-||--7--7------------|-5--5------------|
|-3--3-3-3-3-3---|----------------||o-7--7------------|-5--5------------|
|-1--1-1-1-1-1---|-3--3-3-3-3-3---||--5--5------------|-3--3------------|
|
|                                 Gtr IV
|                                        PM---------|      PM---------|
| Q  E E E E E E   Q  E E E E E E     Q  E  E E E E E   Q  E  E E E E E
|-3--3-3-3-3-3-0-|-5--5-5-5-5-5-0-||------------------|-----------------|
|-1--1-1-1-1-1-0-|-3--3-3-3-3-3-0-||o-----------------|-----------------|
|-0--0-0-0-0-0-0-|-2--2-2-2-2-2-0-||------------------|-----------------|
|----------------|-0--0-0-0-0-0---||--7--7--7-7-7-7-7-|-5--5--5-5-5-5-5-|
|-3--3-3-3-3-3---|----------------||o-7--7--7-7-7-7-7-|-5--5--5-5-5-5-5-|
|----------------|----------------||--5--5--5-5-5-5-5-|-3--3--3-3-3-3-3-|


                                          Outro
  F                                        Em                  F5
  Q  E E +H          +H        Q   Q    4x Q.    E +H          H       E E E E
|-1--1-1-(1)-------|-(1)-------1---1----||-------0-(0)-------|-----------------|
|-1--1-1-(1)-------|-(1)-------1---1---o||-------0-(0)-------|-----------------|
|-2--2-2-(2)-------|-(2)-------2---2----||-------0-(0)-------|-----------------|
|-3--3-3-(3)-------|-(3)-------3---3----||-2-----2-(2)-------|-3---------------|
|-3--3-3-(3)-------|-(3)-------3---3---o||-2-----2-(2)-------|-3-----------0-2-|
|-1--1-1-(1)-------|-(1)-------1---1----||-0-----0-(0)-------|-1-------1-3-----|
|
|    PM------------------------------|         PM----------------------------|
| Q  E E  E  E E E    E  E E E E E E E  4x Q   E E  E  E E E   E E E E E E E E
|------------------|--------------------||-------------------|-----------------|
|------------------|-------------------o||-------------------|-----------------|
|------------------|--------------------||-------------------|-----------------|
|-3--3-3--3--3-3-3-|--3--3-3-3-3-3-3-3--||-2---2-2--2--2-2-2-|-3-3-3-3-3-3-3-3-|
|-3--3-3--3--3-3-3-|--3--3-3-3-3-3-3-3-o||-2---2-2--2--2-2-2-|-3-3-3-3-3-3-3-3-|
|-1--1-1--1--1-1-1-|--1--1-1-1-1-1-1-1--||-0---0-0--0--0-0-0-|-1-1-1-1-1-1-1-1-|


                    Em                  F5
  W                 Q.    E +H          H       E E E E
|-----------------|-------0-(0)-------|-----------------|
|-----------------|-------0-(0)-------|-----------------|
|-----------------|-------0-(0)-------|-----------------|
|-----------------|-2-----2-(2)-------|-3---------------|
|-3---------------|-2-----2-(2)-------|-3-------------0-|
|-----------------|-0-----0-(0)-------|-1-------1-1-3---|
|
| PM------------|       PM----------------------------|
| E E E E E E E E   Q   E E  E  E E E   E E E E E E E E
|-----------------|-------------------|-----------------|
|-----------------|-------------------|-----------------|
|-----------------|-------------------|-----------------|
|-3-3-3-3-3-3-3-3-|-2---2-2--2--2-2-2-|-3-3-3-3-3-3-3-3-|
|-3-3-3-3-3-3-3-3-|-2---2-2--2--2-2-2-|-3-3-3-3-3-3-3-3-|
|-1-1-1-1-1-1-1-1-|-0---0-0--0--0-0-0-|-1-1-1-1-1-1-1-1-|


                      Em                  F
  +W                  Q.    E +H          W          +W           +W
|-------------------|-------0-(0)-------|-1--------|-(1)--------|-(1)----*|
|-------------------|-------0-(0)-------|-1--------|-(1)--------|-(1)----*|
|-------------------|-------0-(0)-------|-2--------|-(2)--------|-(2)----*|
|-------------------|-2-----2-(2)-------|-3--------|-(3)--------|-(3)----*|
|-(0)---------------|-2-----2-(2)-------|-3--------|-(3)--------|-(3)----*|
|-------------------|-0-----0-(0)-------|-1--------|-(1)--------|-(1)----*|
|
|  PM-------------|       PM----------|
|  E  E E E E E E E   Q   E E  E  E E E   W          +W           +W
|-------------------|-------------------|----------|------------|--------*|
|-------------------|-------------------|-1--------|-(1)--------|-(1)----*|
|-------------------|-------------------|----------|------------|--------*|
|--3--3-3-3-3-3-3-3-|-2---2-2--2--2-2-2-|-3--------|-(3)--------|-(3)----*|
|--3--3-3-3-3-3-3-3-|-2---2-2--2--2-2-2-|-3--------|-(3)--------|-(3)----*|
|--1--1-1-1-1-1-1-1-|-0---0-0--0--0-0-0-|-1--------|-(1)--------|-(1)----*|


Duration Legend
---------------
W - whole; H - half; Q - quarter; E - 8th; S - 16th; T - 32nd; X - 64th; a - acciaccatura
+ - note tied to previous; . - note dotted; .. - note double dotted
Uncapitalized letters represent notes that are staccato (1/2 duration)
Irregular groupings are notated above the duration line
Duration letters will always appear directly above the note/fret number it represents the
duration for.  Duration letters with no fret number below them represent rests.  Multi-
bar rests are notated in the form Wxn, where n is the number of bars to rest for.  Low
melody durations appear below the staff

Tablature Legend
----------------
 h   - hammer-on
 p   - pull-off
 b   - bend
 pb  - pre-bend
 r   - bend release (if no number after the r, then release immediately)
 /\  - slide into or out of (from/to "nowhere")
 s   - legato slide
 S   - shift slide
  - natural harmonic
[n]  - artificial harmonic
n(n) - tapped harmonic
 ~   - vibrato
 tr  - trill
 T   - tap
 TP  - trem. picking
 PM  - palm muting
\n/  - tremolo bar dip; n = amount to dip
 \n  - tremolo bar down
 n/  - tremolo bar up
/n\  - tremolo bar inverted dip
 =   - hold bend; also acts as connecting device for hammers/pulls
 <>  - volume swell (louder/softer)
 x   - on rhythm slash represents muted slash
 o   - on rhythm slash represents single note slash

Misc Legend
-----------
 |  - bar
||  - double bar
||o - repeat start
o|| - repeat end
*|  - double bar (ending)
 :  - bar (freetime)
 $  - Segno
 &  - Coda
Tempo markers -  = BPM(8/16=s8/s16), where s8 = swing 8ths, s16 = swing 16ths

            
            
Suggest correction
Creating personal tab
Creating personal tab
You can edit any tab online and save it as your Personal.

You can edit, replace or remove any tab part or add personal notes – all changes will be seen only by you.

Personal tabs can be accessed anytime from any device, even offline.
Learn more »
Give kudos to tab author, rate the tab!
1 2 3 4 5
comments
print report bad tab
guest
You may want to rate the tab now too:
select rating
Wanna post a correction for this tab? Suggest correction