Oops, an error
Loading. Please wait.

Age Of Consent tab

version 1
version 1

Whole song

Interactive

80,887 views 312 this week
5 commentsread comments
1 2 3 4 5
x 46
add to favorites
×
Save as Personal and add changes to this tab that will be seen only by you. Learn more ›
×
You can save this tab as Personal to edit and correct it or add notes. All changes will be seen only by you. Learn more »
launch autoscroll
font size
0
reset
how to read this tab
guitar tuner
backing track
0:00
0:00
edit
Autoscroll
slow
fast
+/-
esc
set tempo
stop
Author
Difficulty
Age Of Consent - New Order

Tabbed by: Markie31
Email: mark_cheddar31@hotmail.co.uk
Tuning: standard (eGBDAE)


[Main Bass lines]

G|-------7--7--7--7--7--7--9--7--7--7---------------------------------------|
D|-7--9---------------------------------------------------------------------|
A|--------------------------------------------------------------------------|
E|--------------------------------------------------------------------------|

G|-------7--7--7--9--7--9--7--9---------------------------------------------|
D|-7--9---------------------------7--9--------------------------------------|
A|--------------------------------------------------------------------------|
E|--------------------------------------------------------------------------|


[Intro Guitar]

e|---------------------------------------------------------------------------|
B|----7--7--7--7--7--7--7--7--7--7--7--5--5--5--5--3--5--3--5----------------|
G|--7--7--7--7--7--7--7----------------------------------------2h4-4-4-4-4---|
D|---------------------------------------------------------------------------|
A|---------------------------------------------------------------------------|
E|---------------------------------------------------------------------------|

e|------------------------------------------------5s7--7-7-7-7-7-7-----------|
B|-------------7--7--7--7--5--5--5--5--3--5--3--5----------------------------|
G|-4-4-4-4-------------------------------------------------------------------|
D|---------------------------------------------------------------------------|
A|---------------------------------------------------------------------------|
E|---------------------------------------------------------------------------|

D                        G
Won't you please let me go
       D                              G
These words lie inside they hurt me so
     D
And I'm not the kind that likes to tell you
G
Just what I want to do
D
I'm not the kind that needs to tell you
G                       D           G
Just what you want me to

  D
I saw you this morning
                                     G
I thought that you might like to know
   D                                         G
I received your message in full a few days ago
      D                            G
I understood every word that it said
              D
And now that I've actually heard it
                      G
You're going to regret

     D
And I'm not the kind that likes to tell you
G
Just what you want me to
D                                        G
You're not the kind that needs to tell me

About the birds and the bees


[Keyboard part]

e|--------------------------------------------------------------------------|
B|--7--5--7--8-------7--5--7--8--5------------------------------------------|
G|----------------------------------4---------------------------------------|
D|--------------------------------------------------------------------------|
A|--------------------------------------------------------------------------|
E|--------------------------------------------------------------------------|

e|-----------------------------------7---5----------------------------------|
B|--7--5--7--8-------7--5--7--8--5------------------------------------------|
G|--------------------------------------------------------------------------|
D|--------------------------------------------------------------------------|
A|--------------------------------------------------------------------------|
E|--------------------------------------------------------------------------|


[Guitar Solo]

e|--------------------------------------------------------------------------|
B|------------------------------------------------------3-------------------|
G|--4--2----4---2---4---------------4--4--4--2------2-------2--4------------|
D|--------------------------------------------------------------------------|
A|-----------------------2-----------------------------------------2--------|
E|--------------------------------------------------------------------------|

e|--------------------------------------------------------------------------|
B|--------------------------------------------------------------------------|
G|--------------------------------------------------------------------------|
D|--4--4--2--4--4--2--4--4--7--7--7--4--4--2--4--4--2--4--4--2--2--2--------|
A|--------------------------------------------------------------------------|
E|--------------------------------------------------------------------------|

Not Sure About The Chordal Part, something in the key of D:

e|-2-2-2-2-2-2-2-2-2-2-2-2-2-2-2-2-2-2-2-2-2-2-2-2-2-2-2--------------------|
B|-3-3-3-3-3-3-3-3-3-3-3-3-3-3-3-3-3-3-3-3-3-3-3-3-3-3-3--------------------|
G|-2-2-2-2-2-2-2-2-2-2-2-2-2-2-2-2-2-2-2-2-2-2-2-2-2-2-2--------------------|
D|-0-0-0-0-0-0-0-0-0-0-0-0-0-0-0-0-0-0-0-0-0-0-0-0-0-0-0--------------------|
A|--------------------------------------------------------------------------|
E|--------------------------------------------------------------------------|

D                                    G
Do you find this happens all the time
D                                    G
Crucial point one day becomes a crime
     D
And I'm not the kind that likes to tell you
G
Just what I want to do
D                                     G
I'm not the kind that needs to tell you

I've lost you

e|--------------------------------------------------------------------------|
B|---------7-------------7--------------------------------------------------|
G|--7--7-----7--7--7--------7---7--7---------7--7---------------------------|
D|-------7------------7----------------7--7--------7--7---------------------|
A|--------------------------------------------------------------------------|
E|--------------------------------------------------------------------------|

e|--------------------------------------------------------------------------|
B|--7--7-------7--7-------7--7-----7--7-------------------------------------|
G|--7--7-------7--7-------7--7-----7--7-------------------------------------|
D|--7--7-------7--7-------7--7-----7--7-------------------------------------|
A|--5--5-------5--5-------5--5-----5--5-------------------------------------|
E|--------------------------------------------------------------------------|

Repeat keyboard part until fade out

Please rate, comment, improve etc

************************************

| h  Hammer-on
| s  Slide

************************************

            
            
Suggest correction
Creating personal tab
Creating personal tab
You can edit any tab online and save it as your Personal.

You can edit, replace or remove any tab part or add personal notes – all changes will be seen only by you.

Personal tabs can be accessed anytime from any device, even offline.
Learn more »
comments
print report bad tab
5 comments total. Showing first comments.
0 reply
silversunpickup 15 Oct 16, 2009 10:10 PM

i havent played it yet, but sounds like its right.

0 reply
paolomelone 21 Dec 13, 2010 10:43 AM

great!
thnx!

+7 reply
patrick.m.ryan1 202 Jan 20, 2015 12:42 PM

Intro riff:

e|-----------------------------|-------------------------------------------|
B|-----------------------------|-------------------------------------------|
G|-----11-----11-----11-----11-|---11-11---9-9---7-7---9-7-9-4---4-4---4\2-|
D|---0----0-0----0-0----0-0----|-0-------0-----0-----0---------0-----0-----|
A|-----------------------------|-------------------------------------------|
E|-----------------------------|-------------------------------------------|

e|------------------------------------------------|
B|------------------------------------------------|
G|---11-11---9-9---7-7-7-9-7-9-16--16-16---16\14--|
D|-0-------0-----0---------------0-------0--------|
A|------------------------------------------------|
E|------------------------------------------------|

Guitar solo:
e|--------------------------------------------------------------------------|
B|------------------------------------------------------3-------------------|
G|--4--2----4---2---4---------------4--4--4--2------2-------2--4------------|
D|--------------------------------------------------------------------------|
A|-----------------------2-----------------------------------------2--------|
E|--------------------------------------------------------------------------|

e|--------------------------------------------------------------------------|
B|--------------------------------------------------------------------------|
G|--------------------------------------------------------------------------|
D|--4--4--2--4--4--2--4--4--7--7--7--4--4--2--4--4--2--4--4--2--2--2--------|
A|--------------------------------------------------------------------------|
E|--------------------------------------------------------------------------|

e|--------------------------------------------------------------------------|
B|------------------------------------------------------3-------------------|
G|--4--2----4---2---4---------------4--4--4--2------2-------2--4------------|
D|--------------------------------------------------------------------------|
A|-----------------------2-----------------------------------------2--------|
E|--------------------------------------------------------------------------|

guest
You may want to rate the tab now too:
select rating
Wanna post a correction for this tab? Suggest correction