Oops, an error
Loading. Please wait.

Bizzare Love Triangle tab

version 4
version 4

Whole song

685 views 1 this week
no commentswrite comment
1 2 3 4 5
3 more votes to show rating
add to favorites
×
Save as Personal and add changes to this tab that will be seen only by you. Learn more ›
×
You can save this tab as Personal to edit and correct it or add notes. All changes will be seen only by you. Learn more »
launch autoscroll
font size
0
reset
how to read this tab
guitar tuner
edit
Autoscroll
slow
fast
+/-
esc
set tempo
stop
Author
Difficulty
-------------------------------------------------------------------------------
                             "Bizarre Love Triangle," New Order
-------------------------------------------------------------------------------
Tabbed by: Restless Minds
E-mail: 

Tuning: standard

Hi, my name's Jaime, and this is my 1st time submitting guitar tab online. 
Personally, I prefer to figure out songs by ear. Unfortunately, sometimes figuring 
out a song by ear, can take up a lot of time. So if I'm short on time, I'll go 
online, & look for the tab. Unfortunately, I run into a lot of inaccurate 
tablature online. That said, if you ever see any of my tablature in the future, I 
can assure you, that it'll be 90%-100% accurate. 
__________________________________________________________________________________________________

{Intro}: Well, if you didn't know, New Order released 2 versions of "Bizarre Love 
Triangle," and couple of remixes. The original version has a bass/keyboard intro. 
The second version, from their "Greatest Hits" album, just goes straight into 
first verse. Nevertheless, I decided to include the bassline intro.

e|---------------------------------------------------------------------------|
B|---------------------------------------------------------------------------|
G|---------------------------------------------------------------------------|
D|---------------------------------------------------------------------------|
A|-6-6-6-6--6-6-6--6-6-6-6-6------------------------------5-5-5-5--5-5-5-----|
E|-----------------------------1-1-1-1--1-1-1--1-1-1-1-1---------------------|

e|---------------------------------------------------------------------------|
B|---------------------------------------------------------------------------|
G|---------------------------------------------------------------------------|
D|---------------------------------------------------------------------------|
A|-5-5-5-5-5--6-6-6-6--6-6-6--6-6-6-6-6--------------------------------------|
E|---------------------------------------------------------------------------|

(Verses): All verses are the same. I did my best to align guitars 1 and 2. So 
guitar 1 is playing E flat major, while guitar 2 is playing B flat, which is a 
fifth, but an octave lower. The bassline for the verses is similar to what guitar 
2 is doing, but simpler. It's just B flat, F, D, and E flat. 

[guitar 1] 

e|------1----1---------------------------------------------------------------|
B|-8----1----2-------------8-------------------------------------------------|
G|-8----2----3-------------8-------------------------------------------------|
D|-8----3----0-------------8-------------------------------------------------|
A|-6----3------------------6-------------------------------------------------|
E|-------1-------------------------------------------------------------------|

[guitar 2]

e|---------------------------------------------------------------------------|
B|---------------------------------------------------------------------------|
G|---------------------------------------------------------------------------|
D|---------------------------------------------------------------------------|
A|-1-1--------5--5-6-5-6-5-1-------------------------------------------------|
E|-------1-1-----------------------------------------------------------------|

(Chorus): I gave the chords some variation, just to show you your options. I don't 
think it matters where you play the F major or D minor. You could play E flat 
major on the 11th fret, starting on the low E string, but that only makes it more 
difficult to play. 

e|--------------------------------------------------------------------------|
B|-8--------10-------------8-------------8----------------------------------|
G|-8--------10-------------7-------------8----------------------------------|
D|-8--------10-------------7-------------8----------------------------------|
A|-6---------8-------------5-------------6----------------------------------|
E|--------------------------------------------------------------------------|
     Every time I see you falling, I get down on my knees, and pray, I'm waiting 
for that 

e|-1---------------1---------------------------------------------------------|
B|-1---------------2---------------8-----------------------------------------|
G|-2---------------3---------------8-----------------------------------------|
D|-3---------------0---------------8-----------------------------------------|
A|-3-------------------------------6-----------------------------------------|
E|-1-------------------------------------------------------------------------|
     final moment, you, say the words that I can't say....

(Outro): I haven't taken the time to figure it out yet, but it sounds like the 
same chords, but with notes picked out individually, or it could be the keyboard 
playing it. I'll figure it out in the near future, & add it in. However, if 
someone already knows it in standard tuning, feel free to do add it in for me. If 
your version sounds correct to me, I won't change it.

e|---------------------------------------------------------------------------|
B|---------------------------------------------------------------------------|
G|---------------------------------------------------------------------------|
D|---------------------------------------------------------------------------|
A|---------------------------------------------------------------------------|
E|---------------------------------------------------------------------------|

e|---------------------------------------------------------------------------|
B|---------------------------------------------------------------------------|
G|---------------------------------------------------------------------------|
D|---------------------------------------------------------------------------|
A|---------------------------------------------------------------------------|
E|---------------------------------------------------------------------------|


************************************

| /   slide up
| \   slide down
| h   hammer-on
| p   pull-off
| ~   vibrato
| +   harmonic
| x   Mute note
| b   Bend
| pb  Pre-bend
| br  Bend release
| pbr Pre-bend release
| brb Bend release bend

************************************
Suggest correction
Creating personal tab
Creating personal tab
You can edit any tab online and save it as your Personal.

You can edit, replace or remove any tab part or add personal notes – all changes will be seen only by you.

Personal tabs can be accessed anytime from any device, even offline.
Learn more »
Give kudos to tab author, rate the tab!
1 2 3 4 5
comments
print report bad tab
guest
You may want to rate the tab now too:
select rating
Wanna post a correction for this tab? Suggest correction