Oops, an error
Loading. Please wait.

Blue Monday Bass

version 1
version 1

Whole song

Interactive

21,615 views 42 this week
4 commentsread comments
1 2 3 4 5
x 12
add to favorites
launch autoscroll
font size
0
reset
guitar tuner
backing track
0:00
0:00
Autoscroll
slow
fast
+/-
esc
set tempo
stop
BTAB: Blue Monday
Artist: New Order
Author: Rattman (jratt0@hotmail.com)
**Padrino's Bass Tab Exclusive!**
Drop D Tuning

G|----------------------------------------------------------------|
D|---5---5---4---4---2---2---2---2---7---7--0---0---2---2---2---2-|
A|----------------------------------------------------------------|
D|-5---5---4---4---2---2---2---2---7---7--0---0---2---2---2---2---|

Taken from Padrino's Bass Tab Archive: http://members.xoom.com/jszalma/
Suggest correction
comments
print report bad tab
4 comments total. Showing first comments.
0 reply
UtBDan 2,075 Dec 31, 2005 10:48 AM

wrong chords entirely

0 reply
Fleamk2 10 Jun 10, 2006 11:58 AM

This tab is really far off the mark. I play it like this:
G|----7---7---7---7----10--10---5---5---7---7---7---7--|
D|------------------------------------------------------|
A|--5---5---5---5----8---8----3---3---5---5---5---5----|
E|------------------------------------------------------|

And so on.

0 reply
Robert Judkins 41 Oct 27, 2007 06:30 AM

this tab isn't wrong it's just in the wrong key. if the bass guitar was in drop-C as opposed to drop-D, then it would be correct

guest
You may want to rate the tab now too:
select rating
Wanna post a correction for this tab? Suggest correction