Oops, an error
Loading. Please wait.

Blue Monday Chords

version 1
version 1

Whole song

Interactive

118,256 views 300 this week
7 commentsread comments
1 2 3 4 5
x 55
add to favorites
launch autoscroll
font size
0
reset
transpose
0
reset
display chords
guitar tuner
backing track
0:00
0:00
Autoscroll
slow
fast
+/-
esc
set tempo
stop
Author
Strumming
There is no strumming pattern for this song yet. and get +5 IQ
Blue Monday '88 by New Order
no idea who the guitarist is, can't give them credit. lol
Tabbed by Dan Bogosian (UtBDan)
Visit UtBDan's band's website at:
http://www.utbrocks.com

simple song, only takes your basic C, F, G, and Dm chords.


F   C       Dm
How does it feel
   F        C        Dm
To treat me like you do
            F         C          Dm
When you’ve laid your hands upon me
    G       C       Dm
And told me who you are

  F         C   Dm
I thought I was mistaken
  F         C          Dm
I thought I heard your words
        F   C    Dm
Tell me how do I feel
            G   C    Dm
Tell me now how do I feel

F         C           Dm
Those who came before me
F             C       Dm
Lived through their vocations
         F      C      Dm
From the past until completion
          G     C      Dm
They will turn away no more

      F     C          Dm
And I still find it so hard
   F          C       Dm
To say what I need to say
        F          C           Dm
But I’m quite sure that you’ll tell me
         G        C    Dm
Just how I should feel today

  F     C           Dm
I see a ship in the harbor
  F       C     Dm
I can and shall obey
          F          C       Dm
But if it wasn’t for your misfortunes
         G        C      Dm
I’d be a heavenly person today

      F         C      Dm
And I thought I was mistaken
      F         C         Dm
And I thought I heard you speak
        F   C    Dm
Tell me how do I feel
            G   C        Dm
Tell me now how should I feel

  F         C           Dm
I thought I told you to leave me
        F      C           Dm
While I walked down to the beach
        F   C       Dm
Tell me how does it feel
     G          C     Dm
When your heart grows cold
Suggest correction
comments
print report bad tab
7 comments total. Showing first comments.
+3 reply
kingurth 155 Dec 16, 2008 03:21 PM

New Order's guitarist is Bernard Sumner.

+3 reply
Neil R. Rose 333 Sep 07, 2010 03:08 PM

Intro
e|-------------------------------------|
B|-------------------------------------|
G|-------------------------------------|
D|-------------------------------------|
A|---8-8-8--10--3-3-3-3h5-5-5-5-5-5-5--|
E|-------------------------------------|

Part 1
e|--------------------------------------------|
B|--------------------------------------------|
G|--------------------------------------------|
D|--------------------------------------------|
A|---8-8-8--10--------------------------------|
E|-------------8-8-8-8h10-10-10-10-10-10-10---|

Part 2
e|-------------------------------------------------
B|-------------------------------------------------
G|-------------------------------------------------
D|-------------------------------------------------
A|--12--12--10-10--10--8----10-12--12--10-10--8----
E|-------------------------------------------------

e|---------------------------------------------------------------|
B|---------------------------------------------------------------|
G|---------------------------------------------------------------|
D|---------------------------------------------------------------|
A|--12--12--10-10-10--8----8-8-8--10-----------------------------|
E|-----------------------------------8-8-8h10-10-10-10-10-10-10--|

+5 reply
averageman 38 Mar 03, 2011 10:51 AM

Dm sounds good in the parts where D doesnt sound right

guest
You may want to rate the tab now too:
select rating
Wanna post a correction for this tab? Suggest correction