Oops, an error
Loading. Please wait.

Crystal Bass

version 1
version 1

Whole song

Interactive

6,414 views 6 this week
no commentswrite comment
1 2 3 4 5
x 3
add to favorites
launch autoscroll
font size
0
reset
guitar tuner
backing track
0:00
0:00
Autoscroll
slow
fast
+/-
esc
set tempo
stop
Author
Difficulty
novice
Tab by: RageNate
Any comments or corrections: hollow.nate@gmail.com


Bass 1 (clean) Main Riff (Verse-Chorus-Solos-Outro)

G|---------------------------------------------|
D|---------------------------------------------|
A|---------------------------------------------|
E|-(0)44444444/77777777-(0)22222222/99999999---|

Bass 2 (w/synth) (Solo I & II)

G|----11----11-13-11--13-13-13--13-13-13--|
D|-13----13-------------------------------|
A|----------------------------------------|
E|----------------------------------------|

G|----11----11-13-11--13-13-13--13-13-13--|
D|-13----13-------------------------------|
A|----------------------------------------|
E|----------------------------------------|

G|-16-15---------------16--16/18--18-18-18-|
D|-------18-18--16-18----------------------|
A|-----------------------------------------|
E|-----------------------------------------|

G|-16-15--------------16--18/20--20-20-20--|
D|-------18-18--16-18----------------------|
A|-----------------------------------------|
E|-----------------------------------------|

G|--------11-13--13-13--11----------------|
D|-13--13-------------------13--13-13-13--|
A|----------------------------------------|
E|----------------------------------------|

G|--------11-13--13-13--15--13------------|
D|-13--13-----------------------13-13-13--|
A|----------------------------------------|
E|----------------------------------------|

G|-16-15-----------16--15-----------------|
D|-------18-18--18--------18--18-18-18----|
A|----------------------------------------|
E|----------------------------------------|

G|----11----11-13-11--13-13-13--13-13-13--|
D|-13----13-------------------------------|
A|----------------------------------------|
E|----------------------------------------|

Notes:
1. A single bass player can play the whole song switching effect(s) before chorus and 
solo

2. A lot of live versions of this song (I don't know if all of them) are played 1/2 step 
so the main riff is A-C-G-D instead of the original album version: Ab-B-Gb-Db
Suggest correction
Give kudos to tab author, rate the tab!
1 2 3 4 5
comments
print report bad tab
guest
You may want to rate the tab now too:
select rating
Wanna post a correction for this tab? Suggest correction