Oops, an error
Loading. Please wait.

Elegia tab

version 2
version 2

Whole song

2,692 views 24 this week
1 commentread comment
1 2 3 4 5
x 7
add to favorites
×
Save as Personal and add changes to this tab that will be seen only by you. Learn more ›
×
You can save this tab as Personal to edit and correct it or add notes. All changes will be seen only by you. Learn more »
launch autoscroll
font size
0
reset
how to read this tab
guitar tuner
backing track
0:00
0:00
edit
Autoscroll
slow
fast
+/-
esc
set tempo
stop
Author
Difficulty
Tab for Elegia by New Order (Low-life album version). Each part is in the order they appear in the song.

First part, keyboard
                                         repeat many times, then
E|--------------------------------------------------------|--------------------------------------|
B|---0----------1-----------0-----------1-----------0-----|-1--0------1--0------3---1--0---1-----|
G|-----------2-----------2-----------2----------2---------|-------2----------2-------------------|
D|-------2-----------2-----------2----------2-------------|--------------------------------------|
A|--------------------------------------------------------|--------------------------------------|
E|--------------------------------------------------------|--------------------------------------|

Second part, Hooky’s bass (use a chorus pedal)

G|---2----2--4--4---0-----2---4--4--4--------9-------------2----2--4--4---0-----2---4--4--4------|
D|-------------------------------------2---7------------------------------------------------2----|
A|-----------------------------------------------------------------------------------------------|
E|-----------------------------------------------------------------------------------------------|

G|----7--9--9-9-9--12--12-12-12---14-14-14-14--16--14--12----2-----------------------------------|
D|-----------------------------------------------------------------------------------------------|
A|-----------------------------------------------------------------------------------------------|
E|-----------------------------------------------------------------------------------------------|

He improvises a lot the rest of the song, but its easy to figure out, pretty much the same notes


Third part, keyboard (comes in around the 1:00 minute mark)

E|-----------------------------------------------------------------------------------------------|
B|--5-------------------5------------------------------------------------------------------------|
G|-----4--5-----4--5-------4--5-----4--5---------4--5------4--5------4--5-------4--5-------------|
D|-----------5-------------------5------------5----------5---------5-----------5-----------------|
A|-----------------------------------------------------------------------------------------------|
E|-----------------------------------------------------------------------------------------------|

E|-----------------------------------------------------------------------------------------------|
B|-------------------------------------------1--0------1--0------1--0-------1--0-----------------|
G|-----4--5-----4--5-------4--5-----4—5------------2---------2--------2-----------2--------------|
D|--2--------2----------2----------2-------------------------------------------------------------|
A|-----------------------------------------------------------------------------------------------|
E|-----------------------------------------------------------------------------------------------|


Fourth part, guitar or keyboard with delay (starts at 1:40, can best be heard by itself around 3:12)

                Repeat  4 times, then               repeat twice, then repeat 4 times
E|--7----7-7-----7----8-7--------|--8----8-8----8----7--8----------|-------10----10--10----------|
B|----8-------8-----8-----8------|----8------8----8---------8------|----8-------8----------8-----|
G|-------------------------------|---------------------------------|-----------------------------|
D|-------------------------------|---------------------------------|-----------------------------|
A|-------------------------------|---------------------------------|-----------------------------|
E|-------------------------------|---------------------------------|-----------------------------|


Fifth part, another keyboard (starts 2:15, similar to Third part)
                                Repeat 4 times, then
E|-----------------------------------------|-----------------------------------------------------|
B|--5------------------5-------------------|-----------------------------------------------------|
G|-----4--5-----4--5------4--5-----4--5----|-----5--4-----5--4----5---4-----5--4-----------------|
D|-----------5------------------5----------|-----------------------------------------------------|
A|-----------------------------------------|-----------------------------------------------------|
E|-----------------------------------------|-----------------------------------------------------|

       The second time this fifth part is played, it does this instead, then back to the above
                                Repeat 2 times, then this,
E|-----------------------------------------|-----------------------------------------------------|
B|--5-------------------5------------------|--3--1--0-----3--1--0----3--1--0-----3--1--0---------|
G|-----4--5-----4--5-------4--5-----4--5---|-----------------------------------------------------|
D|-----------5-------------------5---------|-----------------------------------------------------|
A|-----------------------------------------|-----------------------------------------------------|
E|-----------------------------------------|-----------------------------------------------------|

Sixth part (from 2:53-3:12, the song slows down w/ strings-style keyboards)
     (Difficult to figure out, I’m guessing on the second two chords)
      Am                    C                      open F                         Gadd6    
E|----0---------------------0-------------------------0-----------------------------0------------|
B|----1---------------------1-------------------------6-----------------------------3------------|
G|----2---------------------0-------------------------5-----------------------------4------------|
D|----2---------------------2-------------------------7-----------------------------5------------|
A|----0---------------------3-------------------------0-----------------------------0------------|
E|-----------------------------------------------------------------------------------------------|

Seventh part, deep bass keyboard notes (starts 3:30, plays through rest of song)
E|-----------------------------------------------------------------------------------------------|
B|-----------------------------------------------------------------------------------------------|
G|-----------------------------------------------------------------------------------------------|
D|-----------------------------------------------------------------------------------------------|
A|-----------------------------------------------------------------------------------------------|
E|-----0--------------------3-----------------------8------------------------10-------------------|

Eighth part, Bernard’s guitar, with fuzz distortion pedal (starts 4:08)
                                        Improvise w/ same notes from here, easy to figure out
E|-----------------------------------------------------------------------------------------------|
B|--------------------------------5--------------5---------------5-------------------------------|
G|------------------5-------5h7------7--5----5------7---5---5h7-----7--5-----5------5h7--7-------|
D|----7------7--7------7--------------------------------------------------7------7---------------|
A|-----------------------------------------------------------------------------------------------|
E|-----------------------------------------------------------------------------------------------|
Suggest correction
Creating personal tab
Creating personal tab
You can edit any tab online and save it as your Personal.

You can edit, replace or remove any tab part or add personal notes – all changes will be seen only by you.

Personal tabs can be accessed anytime from any device, even offline.
Learn more »
comments
print report bad tab
1 comment total.
0 reply
TGlide 12 Jul 02, 2017 12:08 PM

Just what I was looking for! Thanks!

guest
You may want to rate the tab now too:
select rating
Wanna post a correction for this tab? Suggest correction