Oops, an error
Loading. Please wait.

Leave Me Alone Bass Tab

version 1
version 1

Whole song

Interactive

5,805 views 15 this week
1 commentread comment
1 2 3 4 5
x 3
add to favorites
launch autoscroll
font size
0
reset
guitar tuner
Autoscroll
slow
fast
+/-
esc
set tempo
stop
Help us to improve Ultimate-Guitar.com Take our survey!
×
NEW ORDER - LEAVE ME ALONE
ALBUM: POWER, LIES & CORRUPTION (1983)
BASSIST: PETER HOOK

INTRO

E ----------------------------------------------------------------------------|
A ----------------------------------------------------------------------------|
D -10-10-10-10-10-10-10-10-10-10-10-10-10/12-12/9-9-9-9-9-9-9-9-9-9-9-9-9-9-9-|
G ----------------------------------------------------------------------------|

E ----------------------------------------------------------------------------|
A ----------------------------------------------------------------------------|
D -10-10-10-10-10-10-10-10-10-10-10-10-10/12-12/9-9-9-9-9-9-9-9-9-9-9-9-9-9-9-|
G ----------------------------------------------------------------------------|

E ---------------------------------------------------------------------10-|
A ----------------------------------10-10-10-10-10-10-10-10-10-10-10-10---|
D -10101010101010101010101010/12-12---------------------------------------|
G ------------------------------------------------------------------------|


VERSE

E ----------------------------------------------------------------------------|
A ----------------------------------------------------------------------------|
D -10-10-10-10-10-10-10-10-10-10-10-10-10/12-12/9-9-9-9-9-9-9-9-9-9-9-9-9-9-9-|
G ----------------------------------------------------------------------------|

OUTRO

E --------------------------------------10-|
A --10-10-10-10-10-10-10-10-10-10-10-10----|
D -----------------------------------------|
G -----------------------------------------|

JAH WOBBLE IS GOD!!!
Suggest correction
Give kudos to tab author, rate the tab!
1 2 3 4 5
comments
print report bad tab
1 comment total.
0 reply
Unlucky 10 Mar 09, 2010 03:22 AM

Took me a moment to realise it was E A D G, instead of the otherway around but otherwise this is accurate.

*Thumbs up*

guest
You may want to rate the tab now too:
select rating
Wanna post a correction for this tab? Suggest correction