Oops, an error
Loading. Please wait.

Mesh bass

1,168 views 3 this week
1 commentread comment
1 2 3 4 5
2 more votes to show rating
add to favorites
×
Save as Personal and add changes to this tab that will be seen only by you. Learn more ›
×
You can save this tab as Personal to edit and correct it or add notes. All changes will be seen only by you. Learn more »
launch autoscroll
font size
0
reset
guitar tuner
edit
Autoscroll
slow
fast
+/-
esc
set tempo
stop
NEW ORDER - MESH
ALBUM: SUBSTANCE CD 2
BASSIST: PETER HOOK

VERSE

E ----------------------------------------------------------------|
A --3h5-5-5-5-5-5--3h5-5-5-5-5-5--3h5-5-5-5-5-5--3--3-3-3-3-3-3-3-|
D ----------------------------------------------------------------|
G ----------------------------------------------------------------|

VARIATION

E ---------------------------------------------------------------|
A --3h5-5-5-5-5-5--3h5-5-5-5-5-5--3h5-5-5-5-5-5------------------|
D ------------------------------------------------------------5--|
G ----------------------------------------------5-5-5-5-5-5-5----|


THIS IS THE TUNE IN THE OUTRO

E ---------------------------------------------------------------------|
A ---------------------------------------------------------------------|
D -12-12-12------12-12--12-----12-12--12----------------------------12-|
G ----------12-11---------12-11----------12-11-16-16-16-16-16-16-16----|

JAH WOBBLE IS GOD, HOOKY TOO!!!

            
            
Suggest correction
Creating personal tab
Creating personal tab
You can edit any tab online and save it as your Personal.

You can edit, replace or remove any tab part or add personal notes – all changes will be seen only by you.

Personal tabs can be accessed anytime from any device, even offline.
Learn more »
Give kudos to tab author, rate the tab!
1 2 3 4 5
comments
print report bad tab
1 comment total.
+1 reply
Vaexa 52 Jan 08, 2015 08:18 AM

Mislabeled - this is actually ''Cries and Whispers''! Good tab nonetheless, if only any of us knew what the harmonics are!

guest
You may want to rate the tab now too:
select rating
Wanna post a correction for this tab? Suggest correction