Oops, an error
Loading. Please wait.

Run 2 Bass Tab

85 views 1 this week
no commentswrite comment
1 2 3 4 5
3 more votes to show rating
add to favorites
launch autoscroll
font size
0
reset
guitar tuner
Autoscroll
slow
fast
+/-
esc
set tempo
stop
Help us to improve Ultimate-Guitar.com Take our survey!
×
Author
Difficulty
novice
[Verse 1]

G|---------------------------|---------------------|-----------------------------|
D|--10-10-10-10-10-10-10-10--|--10\-3-3-3-3-3-3-3--|--3/10-10-10-10-10-10-10-10--|
A|---------------------------|---------------------|-----------------------------|
E|---------------------------|---------------------|-----------------------------|


G|---------------------|-----------------------------|---------------------|
D|--10\-3-3-3-3-3-3-3--|--3/10-10-10-10-10-10-10-10--|--10\-3-3-3-3-3-3-3--|
A|---------------------|-----------------------------|---------------------|
E|---------------------|-----------------------------|---------------------|


G|-----------------------------|---------------------------|
D|--3/10-10-10-10-10-10-10-10--|--10-10-10-10-10-----------|
A|-----------------------------|-----------------10-10-10--|
E|-----------------------------|---------------------------|


[Verse 2]

G|---------------------------|---------------------|-----------------------------|
D|--10-10-10-10-10-10-10-10--|--10\-3-3-3-3-3-3-3--|--3/10-10-10-10-10-10-10-10--|
A|---------------------------|---------------------|-----------------------------|
E|---------------------------|---------------------|-----------------------------|


G|---------------------|-----------------------------|---------------------|
D|--10\-3-3-3-3-3-3-3--|--3/10-10-10-10-10-10-10-10--|--10\-3-3-3-3-3-3-3--|
A|---------------------|-----------------------------|---------------------|
E|---------------------|-----------------------------|---------------------|


G|-----------------------------|------------------------|
D|--3/10-10-10-10-10-10-10-12--|--12-12-12-12-10-10-10--|
A|-----------------------------|------------------------|
E|-----------------------------|------------------------|


[Instrumental 1]

G|---------------------------|---------------------|-----------------------------|
D|--10-10-10-10-10-10-10-10--|--10\-3-3-3-3-3-3-3--|--3/10-10-10-10-10-10-10-10--|
A|---------------------------|---------------------|-----------------------------|
E|---------------------------|---------------------|-----------------------------|


G|---------------------|-----------------------------|---------------------|
D|--10\-3-3-3-3-3-3-3--|--3/10-10-10-10-10-10-10-10--|--10\-3-3-3-3-3-3-3--|
A|---------------------|-----------------------------|---------------------|
E|---------------------|-----------------------------|---------------------|


G|-----------------------------|-------------------------|------|
D|--3/10-10-10-10-10-10-10-12--|--12-12-12-12/17-17-17\--|--10--|
A|-----------------------------|-------------------------|------|
E|-----------------------------|-------------------------|------|


[Verse 3]

G|---------------------------|---------------------|-----------------------------|
D|--10-10-10-10-10-10-10-10--|--10\-3-3-3-3-3-3-3--|--3/10-10-10-10-10-10-10-10--|
A|---------------------------|---------------------|-----------------------------|
E|---------------------------|---------------------|-----------------------------|


G|---------------------|-----------------------------|---------------------|
D|--10\-3-3-3-3-3-3-3--|--3/10-10-10-10-10-10-10-10--|--10\-3-3-3-3-3-3-3--|
A|---------------------|-----------------------------|---------------------|
E|---------------------|-----------------------------|---------------------|


G|-----------------------------|---------------------------|
D|--3/10-10-10-10-10-10-10-10--|--10-10-10-10-10\-5-5-5-/--|
A|-----------------------------|---------------------------|
E|-----------------------------|---------------------------|


[Verse 4]

G|---------------------------|---------------------|-----------------------------|
D|--10-10-10-10-10-10-10-10--|--10\-3-3-3-3-3-3-3--|--3/10-10-10-10-10-10-10-10--|
A|---------------------------|---------------------|-----------------------------|
E|---------------------------|---------------------|-----------------------------|


G|---------------------|-----------------------------|---------------------|
D|--10\-3-3-3-3-3-3-3--|--3/10-10-10-10-10-10-10-10--|--10\-3-3-3-3-3-3-3--|
A|---------------------|-----------------------------|---------------------|
E|---------------------|-----------------------------|---------------------|


G|-----------------------------|------------------------|
D|--3/10-10-10-10-10-10-10-12--|--12-12-12-12-10-10-----|
A|-----------------------------|--------------------12--|
E|-----------------------------|------------------------|


[Verse 5]

G|---------------------------|---------------------|-----------------------------|
D|--10-10-10-10-10-10-10-10--|--10\-3-3-3-3-3-3-3--|--3/10-10-10-10-10-10-10-10--|
A|---------------------------|---------------------|-----------------------------|
E|---------------------------|---------------------|-----------------------------|


G|---------------------|-----------------------------|---------------------|
D|--10\-3-3-3-3-3-3-3--|--3/10-10-10-10-10-10-10-10--|--10\-3-3-3-3-3-3-3--|
A|---------------------|-----------------------------|---------------------|
E|---------------------|-----------------------------|---------------------|


G|-----------------------------|------------------------|
D|--3/10-10-10-10-10-10-10-12--|--12-12-12-12-10-10-----|
A|-----------------------------|--------------------12--|
E|-----------------------------|------------------------|


[Verse 6]

G|---------------------------|---------------------|-----------------------------|
D|--10-10-10-10-10-10-10-10--|--10\-3-3-3-3-3-3-3--|--3/10-10-10-10-10-10-10-10--|
A|---------------------------|---------------------|-----------------------------|
E|---------------------------|---------------------|-----------------------------|


G|---------------------|-----------------------------|---------------------|
D|--10\-3-3-3-3-3-3-3--|--3/10-10-10-10-10-10-10-10--|--10\-3-3-3-3-3-3-3--|
A|---------------------|-----------------------------|---------------------|
E|---------------------|-----------------------------|---------------------|


G|-----------------------------|------------------------|
D|--3/10-10-10-10-10-10-10-12--|--12-12-12-12-10-10-----|
A|-----------------------------|--------------------12--|
E|-----------------------------|------------------------|


[Instrumental 2] (x2)

G|---------------------------|---------------------|-----------------------------|
D|--10-10-10-10-10-10-10-10--|--10\-3-3-3-3-3-3-3--|--3/10-10-10-10-10-10-10-10--|
A|---------------------------|---------------------|-----------------------------|
E|---------------------------|---------------------|-----------------------------|


G|---------------------|-----------------------------|---------------------|
D|--10\-3-3-3-3-3-3-3--|--3/10-10-10-10-10-10-10-10--|--10\-3-3-3-3-3-3-3--|
A|---------------------|-----------------------------|---------------------|
E|---------------------|-----------------------------|---------------------|


G|-----------------------------|-------------------------|
D|--3/10-10-10-10-10-10-10-12--|--12-12-12-12/17-17-17\--|
A|-----------------------------|-------------------------|
E|-----------------------------|-------------------------|


[Instrumental 2 End] 

G|-------------------------|-----------------------| (x2) 
D|-------------------------|-----------------------|
A|--10--10-10-10-10-10-10--|----10-10-10-10-8-7-8--|
E|-------------------------|-----------------------|


G|----------------|------------11-10--|----------12------|
D|--10------------|--12-----12--------|--10----------10--|
A|----------------|-------------------|------------------|
E|----------------|-------------------|------------------|


G|----------------|----------------|----------------|----------------|
D|----------------|----------------|----------------|----------------|
A|--------r-------|--------r-------|--------r-------|--------r-------|
E|----------------|----------------|----------------|----------------|


G|----------------|----------------|----------------|----------------|
D|----------------|----------------|----------------|----------------|
A|--------r-------|--------r-------|--------r-------|--------r-------|
E|----------------|----------------|----------------|----------------|


G|----------------|----------------|----------------|-------12-12---12------|
D|----------------|----------------|----------------|----10-------10--------|
A|--------r-------|--------r-------|--------r-------|-------------------10--|
E|----------------|----------------|----------------|-----------------------|


[Instrumental 3]

G|---------------------------|---------------------|-----------------------------|
D|--10-10-10-10-10-10-10-10--|--10\-3-3-3-3-3-3-3--|--3/10-10-10-10-10-10-10-10--|
A|---------------------------|---------------------|-----------------------------|
E|---------------------------|---------------------|-----------------------------|


G|---------------------|-----------------------------|---------------------|
D|--10\-3-3-3-3-3-3-3--|--3/10-10-10-10-10-10-10-10--|--10\-3-3-3-3-3-3-3--|
A|---------------------|-----------------------------|---------------------|
E|---------------------|-----------------------------|---------------------|


G|-----------------------------|----------------------------|
D|--3/10-10-10-10-10-10-10-12--|--12-12-12/17-17-15-14-15---|
A|-----------------------------|----------------------------|
E|-----------------------------|----------------------------|


G|--------------------------|--------------------------|
D|--x-15-14-12-12-12-12-12--|----15-14-12-12-12-12-12--|
A|--------------------------|--------------------------|
E|--------------------------|--------------------------|


G|--12-------------------12------------------------|
D|-----15-14-14-14-14-14-----15-14-15-14-----------|
A|---------------------------------------15-15-15--|
E|-------------------------------------------------|


G|-------------------------------------------------------|
D|--12----------12-------12/15--15-15-15-15-15-15-15/17--|
A|-----15-15-15----15-15---------------------------------|
E|-------------------------------------------------------|


G|-----------------------------------------------|
D|--17-17-17-17-17-17\12--12-12-12-/17-15-14-12--|
A|-----------------------------------------------|
E|-----------------------------------------------|


G|---------------------------|---------------------------| (x2)
D|--10-10-10-10-10-10-10-12--|--12-12-12-12/17-15-14-12--|
A|---------------------------|---------------------------|
E|---------------------------|---------------------------|


G|---------------------------|------------------------|
D|--10-10-10-10-10-10-10-----|------------------------|
A|-----------------------10--|--10-10-10-10-10-10-----|
E|---------------------------|--------------------10--|


G|---------------------------|---------------------------| 
D|--10-10-10-10-10-10-10-12--|--12-12-12-12/17-15-14-12--|
A|---------------------------|---------------------------|
E|---------------------------|---------------------------|


G|-----------12--11h12-9-10--|-----------12------------|
D|--10-10-10-----------------|--12-12-12-----15-14-15--|
A|---------------------------|-------------------------|
E|---------------------------|-------------------------|


G|--12-12-12-12-12-12-12-----|------------------------|
D|-----------------------10--|--10-10-10-12-10-12-10--|
A|---------------------------|------------------------|
E|---------------------------|------------------------|


G|---------------------------|----------------------------------------------|
D|-----------------------10--|--10-10-10-12-10-12-12/17--17-17-17-15-14-15--|
A|--10-10-10-10-10-10-10-----|----------------------------------------------|
E|---------------------------|----------------------------------------------|


[Outro]

G|----------------------------|
D|--17--17-17-17-15-14-12-10--|
A|----------------------------|
E|----------------------------|



************************

| / : slide up
| \ : slide down
| h : hammer-on
| x : dead note
| r : rest

************************

in regular sequence!
Suggest correction
Give kudos to tab author, rate the tab!
1 2 3 4 5
comments
print report bad tab
guest
You may want to rate the tab now too:
select rating
Wanna post a correction for this tab? Suggest correction