Oops, an error
Loading. Please wait.

The Him bass

2,270 views 9 this week
no commentswrite comment
1 2 3 4 5
x 3
add to favorites
×
Save as Personal and add changes to this tab that will be seen only by you. Learn more ›
×
You can save this tab as Personal to edit and correct it or add notes. All changes will be seen only by you. Learn more »
launch autoscroll
font size
0
reset
guitar tuner
edit
Autoscroll
slow
fast
+/-
esc
set tempo
stop
Author
Difficulty
-------------------------------------------------------------------------------
			     The Him - New Order
-------------------------------------------------------------------------------

Tabbed By : ErikU
e-mail: http://www.atfpa.com


Intro
G|----------------------------------------------------------------|
D|--8-----7-----7-5-----------------------------------------------|
A|----------------------------------------------------------------|
E|----------------------------------------------------------------|

drums enter
G|----------------------------------------------------------------|
D|-8-----8-10----10-5--555555-------------------------------------|
A|----------------------------------------------------------------|
E|----------------------------------------------------------------|


G|----------------------------------------------------------------|
D|-8-888888-7-777777-5-555555555555-------------------------------|
A|----------------------------------------------------------------|
E|----------------------------------------------------------------|


G|----------------------------------------------------------------|
D|-8-888888-10-101010101010-5-555555555555------------------------|
A|----------------------------------------------------------------|
E|----------------------------------------------------------------|


G|----------------------------------------------------------------|
D|-8-888888-7-777777-5-5555555555555------------------------------| x2
A|----------------------------------------------------------------|
E|----------------------------------------------------------------|

:49-1:45
G|----------------------------------------------------------------|
D|-8-888888888888 8h10-555555555555-------------------------------|
A|----------------------------------------------------------------|
E|----------------------------------------------------------------|

heavy part (gallop, triplet feel)
G|----------------------------------------------------------------|
D|-8-888888-7-777777-10-10101010101010101212121212----------------| x4
A|----------------------------------------------------------------|
E|----------------------------------------------------------------|

2:15
G|----------------------------------------------------------------|
D|-8-----10-----10-5----555555------------------------------------|
A|----------------------------------------------------------------|
E|----------------------------------------------------------------|

G|----------------------------------------------------------------|
D|-8-888888888888 8h10-555555555555-------------------------------|
A|----------------------------------------------------------------|
E|----------------------------------------------------------------|

2:31-3:43
G|-------------------------------------5---5----------------------|
D|-8-888888888888 8h10-55555-8h10-5-55---5------------------------|
A|----------------------------------------------------------------|
E|----------------------------------------------------------------|
							            x5
G|---------------------------------------------------------------||
D|-8-888888888888 8h10-555555555555------------------------------||
A|---------------------------------------------------------------||
E|---------------------------------------------------------------||


G|----------------------------------------------------------------|
D|-8-----7-----5----about 10 sec of feedback----------------------|
A|----------------------------------------------------------------|
E|----------------------------------------------------------------|

heavy part (gallop, triplet feel)
G|----------------------------------------------------------------|
D|-8-888888-7-777777-10-10101010101010101212121212----------------| x10
A|----------------------------------------------------------------|
E|----------------------------------------------------------------|

end
G|----------------------------------------------------------------|
D|-8-----8-10----10-5---------------------------------------------|
A|----------------------------------------------------------------|
E|----------------------------------------------------------------|


===================================================================

            
            
Suggest correction
Creating personal tab
Creating personal tab
You can edit any tab online and save it as your Personal.

You can edit, replace or remove any tab part or add personal notes – all changes will be seen only by you.

Personal tabs can be accessed anytime from any device, even offline.
Learn more »
Give kudos to tab author, rate the tab!
1 2 3 4 5
comments
print report bad tab
guest
You may want to rate the tab now too:
select rating
Wanna post a correction for this tab? Suggest correction