Oops, an error
Loading. Please wait.

This Time Of Night bass

142 views 1 this week
1 commentread comment
1 2 3 4 5
3 more votes to show rating
add to favorites
×
Save as Personal and add changes to this tab that will be seen only by you. Learn more ›
×
You can save this tab as Personal to edit and correct it or add notes. All changes will be seen only by you. Learn more »
launch autoscroll
font size
0
reset
guitar tuner
edit
Autoscroll
slow
fast
+/-
esc
set tempo
stop
-------------------------------------------------------------------------------
                       THIS TIME OF NIGHT - New Order
-------------------------------------------------------------------------------
Tabbed by: Lucky Eastwood
E-mail: luckyeastwood273@gmail.com

Tuning: Standard

The bass is played melodically. A chorus pedal is recommended. Peter Hook originally 
used a bass similar to the Fender Bass VI, however I managed to pull it off with a 
4 string bass. It sounds a little more mellow.

INTRO

(Bass enters at the 9th bar)

G|---------------------------------------------------------------------------|
D|8-----8-13--11-1011-8---------------8-----8-13--11-1011-8-------6-8-6-3--1-|
A|---------------------------------------------------------------------------|
E|---------------------------------------------------------------------------|

G|---------------------------------------------------------------------------|
D|3--------------------------------------------------------------------------|
A|---1-----1p-------1p-------1p------1p--------------------------------------|
E|---------------------------------------------------------------------------|


CHORUS (Without you...)


G|13-15-15-15-15-15-15-15-15-18-18-18-18-18-18-17-17-17-13-15-15-15-15-15-15-|
D|---------------------------------------------------------------------------|
A|---------------------------------------------------------------------------|
E|---------------------------------------------------------------------------|

G|15-15-13-15-15-15-15-15-15-15-15-13-15-15-15-15-15-15-15-15-18-18-18-18-18-|
D|---------------------------------------------------------------------------|
A|---------------------------------------------------------------------------|
E|---------------------------------------------------------------------------|

G|18-18-17-17-13-15-15-15-15-15-15-15-15-13-15-15-15-15-15-15-15-15-13-15-15-|
D|---------------------------------------------------------------------------|
A|---------------------------------------------------------------------------|
E|---------------------------------------------------------------------------|

G|15-15-15-15-15-15-18-18-18-18-18-18-21-21-21-13-15-15-15-15-15-15-15-15-13-|
D|---------------------------------------------------------------------------|
A|---------------------------------------------------------------------------|
E|---------------------------------------------------------------------------|

G|15-15-15-15-15-15-15-15-13-15-15-15-15-15-15-15-15-18-18-18-18-18-18-20-20-|
D|---------------------------------------------------------------------------|
A|---------------------------------------------------------------------------|
E|---------------------------------------------------------------------------|

G|20-13-15-15-15-15-15-15-15-15-13-13-13-13-13-13-13-------------------------|
D|---------------------------------------------------------------------------|
A|---------------------------------------------------------------------------|
E|---------------------------------------------------------------------------|


SOLO (4x)

G|13-15-15-15-15-15-15-13-13-13-13-13-13-------13-------13----13-------------|
D|---------------------------------------15-15----15-15----15----------15----|
A|---------------------------------------------------------------13-13----13-|
E|---------------------------------------------------------------------------|



G|---------------------------------------------------------------------------|
D|---15----------------------------------------------------------------------|
A|13----13-------------------------------------------------------------------|
E|---------------------------------------------------------------------------|


END (truncated)

G|---------------------------------------------------------------------------|
D|8-----8-15-15-15-13-13-11-10-11-10-11--8-8--8-8-15-15-15-13-13-11-10-11-10-|
A|---------------------------------------------------------------------------|
E|---------------------------------------------------------------------------|



G|---------------------------------------------------------------------------|
D|11--8-8--8-8-15-15-15-13-13-11-10-11-10-11-10-8-8--8-8--6-8-6-8-6-3--------|
A|---------------------------------------------------------------------------|
E|---------------------------------------------------------------------------|


| /  slide up
| \  slide down
| h  hammer-on
| p  pull-off
| ~  vibrato
| +  harmonic
| x  Mute note
===============================================================================

            
            
Suggest correction
Creating personal tab
Creating personal tab
You can edit any tab online and save it as your Personal.

You can edit, replace or remove any tab part or add personal notes – all changes will be seen only by you.

Personal tabs can be accessed anytime from any device, even offline.
Learn more »
Give kudos to tab author, rate the tab!
1 2 3 4 5
comments
print report bad tab
1 comment total.
0 reply
Vaexa 52 Mar 15, 2016 03:43 AM

Specifically, this is played on a Shergold Marathon 6-string with an EHX Clone Theory chorus pedal. And an SVT cranked all to hell.

guest
You may want to rate the tab now too:
select rating
Wanna post a correction for this tab? Suggest correction