Oops, an error
Loading. Please wait.

You Get What You Give Tab

version 1
version 1

Whole song

Interactive

57,412 views 33 this week
3 commentsread comments
1 2 3 4 5
x 19
add to favorites
launch autoscroll
font size
0
reset
how to read this tab
guitar tuner
backing track
0:00
0:00
×
Best way to learn
"You Get What You Give"
Autoscroll
slow
fast
+/-
esc
set tempo
stop
*You Get What You Give*
Transcribed by Obscured@san.rr.com
Http://home.san.rr.com/obscured

Tuning: E A D G B E

 [Intro]
                                 x6
e|---------------------------------|
B|-2-2-2-2-2-2-2-2-3-3-3-3-3-3-3-3-|
G|-2-2-2-2-2-2-2-2-0-0-0-0-0-0-0-0-|
D|---------------------------------|
A|---------------------------------|
E|---------------------------------|

DMaj9 //// Cadd9 //// DMaj9 //// Cadd9 ////

[Verse]
DMaj9 //// Cadd9 //// DMaj9 //// Cadd9 ////
DMaj9 //// Cadd9 //// Em //// Asus4 // A //

DMaj9 //// Cadd9 //// DMaj9 //// Cadd9 ////
DMaj9 //// Cadd9 //// Em //// Asus4 // A //

[Pre-Chorus]
F#m //// Bm // A //
G //// Asus4 // A //
F#m //// Bm ////
Asus2 ////////

[Chorus]
G //// Asus4 // A //
F#m //// Bm // A //

G //// Asus4 // A //
F#m //// Bm // A //

G //// C // G //

[Bridge]
DMaj9 //// Cadd9 //// DMaj9 //// Cadd9 ////

[Verse 2]
DMaj9 //// Cadd9 //// DMaj9 //// Cadd9 ////
DMaj9 //// Cadd9 //// Em //// Asus4 // A //

[Pre-Chorus 2]
F#m //// Bm // A //
G //// Asus4 // A //
F#m //// Bm ////
Asus2 ////////

[Chorus 2]
G //// Asus4 // A //
F#m //// Bm // A //

G //// Asus4 // A //
F#m //// Bm // A //

G //// C // G //

[Solo]
DMaj9 //// AMaj11 // G //
DMaj9 //// AMaj11 // G //

[Interlude]
DMaj9 //// AMaj11 // G //
DMaj9 //// AMaj11 // G //
DMaj9 //// AMaj11 // G //
DMaj9 ////

Asus4 //// A //// Asus4 //// A ////

[Chorus 3]
G //// Asus4 // A //
F#m //// Bm // A //

G //// Asus4 // A //
F#m //// Bm // A //

G //// Asus4 // A //
F#m //// Bm // A //

G //// Asus4 // A //
F#m //// Bm // A //

G //// Asus4 // A //
F#m //// Bm // A //

G //// Asus4 // A //
F#m //// Bm // A //

G //// Asus4 // A //
F#m //// Bm // A //

[Outro] - Fade out on this progression
G //// Asus4 // A //
F#m //// Bm // A //

 [Chords]
   A Asus2 Asus4 AMaj11 Bm C Cadd9 DMaj9 Em F#m G
e|-0---0-----0------0---2--0---0-----0---0---2--3-|
B|-2---0-----3------3---3--1---3-----2---0---2--3-|
G|-2---2-----2------0---4--0---0-----2---0---2--0-|
D|-2---2-----2------2---4--2---2-----0---2---4--0-|
A|-0---0-----0------0---2--3---3---------2---4--2-|
E|---------------------------------------0---2--3-|
Suggest correction
comments
print report bad tab
3 comments total.
0 reply
Sondean 30 Nov 27, 2008 08:38 PM

my timing is off on the chorus, can anyone plz put the chords over the words just for the chorus, Thx

Great job though!

+2 reply
jazzza_s 10 Nov 04, 2010 03:39 AM

think the intro should go like this
|-----------------5-5-5-5-5-5-5-5-|
|-2-2-2-2-2-2-2-2-3-3-3-3-3-3-3-3-|
|-2-2-2-2-2-2-2-2-0-0-0-0-0-0-0-0-|
|---------------------------------|
|---------------------------------|
|---------------------------------|

0 reply
James Guevara 203 Jun 23, 2013 04:36 AM

Nice tab, like! :)

guest
You may want to rate the tab now too:
select rating
Wanna post a correction for this tab? Suggest correction