Oops, an error
Loading. Please wait.

You Get What You Give tab

version 2
version 2

Whole song

Interactive

13,122 views 18 this week
2 commentsread comments
1 2 3 4 5
x 11
add to favorites
×
Save as Personal and add changes to this tab that will be seen only by you. Learn more ›
×
You can save this tab as Personal to edit and correct it or add notes. All changes will be seen only by you. Learn more »
launch autoscroll
font size
0
reset
how to read this tab
guitar tuner
backing track
0:00
0:00
edit
Autoscroll
slow
fast
+/-
esc
set tempo
stop
Difficulty
intermediate
INTRO
                                x6
|---------------------------------|
|-2-2-2-2-2-2-2-2-3-3-3-3-3-3-3-3-|
|-2-2-2-2-2-2-2-2-0-0-0-0-0-0-0-0-|
|---------------------------------|
|---------------------------------|
|---------------------------------|

DMaj9 //// Cadd9 //// DMaj9 //// Cadd9 ////
|-0----------0---------0-----------0------|
|-2----------3---------2-----------3------|
|-2----------0---------2-----------0------|
|-0----------2---------0-----------2------|
|------------3---------------------3------|
|-----------------------------------------|

VERSE
DMaj9 //// Cadd9 //// DMaj9 //// Cadd9 ////
|-0----------0---------0-----------0------|
|-2----------3---------2-----------3------|
|-2----------0---------2-----------0------|
|-0----------2---------0-----------2------|
|------------3---------------------3------|
|-----------------------------------------|


DMaj9 //// Cadd9 //// Em //// Asus4 // A //
|-0----------0---------0--------0------0--|
|-2----------3---------0--------3------2--|
|-2----------0---------0--------2------2--|
|-0----------2---------2--------2------2--|
|------------3---------2--------0------0--|
|----------------------0------------------|

DMaj9 //// Cadd9 //// DMaj9 //// Cadd9 ////
|-0----------0---------0-----------0------|
|-2----------3---------2-----------3------|
|-2----------0---------2-----------0------|
|-0----------2---------0-----------2------|
|------------3---------------------3------|
|-----------------------------------------|

DMaj9 //// Cadd9 //// Em //// Asus4 // A //
|-0----------0---------0--------0------0--|
|-2----------3---------0--------3------2--|
|-2----------0---------0--------2------2--|
|-0----------2---------2--------2------2--|
|------------3---------2--------0------0--|
|----------------------0------------------|







PRE-CHORUS
	F#m //// Bm // A //
|--------2-------2-----0------------------|
|--------2-------3-----2------------------|
|--------2-------4-----2------------------|
|--------4-------4-----2------------------|
|--------4-------2-----0------------------|
|--------2--------------------------------|

	G //// Asus4 // A //
|-------3-------0-------0-----------------|
|-------3-------3-------2-----------------|
|-------0-------2-------2-----------------|
|-------0-------2-------2-----------------|
|-------2-------0-------0-----------------|
|-------3---------------------------------|

	F#m //// Bm ////
|--------2-------2------------------------|
|--------2-------3------------------------|
|--------2-------4------------------------|
|--------4-------4------------------------|
|--------4-------2------------------------|
|--------2--------------------------------|

	Asus2 ////////
|-------0---------------------------------|
|-------0---------------------------------|
|-------2---------------------------------|
|-------2---------------------------------|
|-------0---------------------------------|
|-----------------------------------------|

CHORUS
	G //// Asus4 // A //
|-------3-------0-------0-----------------|
|-------3-------3-------2-----------------|
|-------0-------2-------2-----------------|
|-------0-------2-------2-----------------|
|-------2-------0-------0-----------------|
|-------3---------------------------------|

	F#m //// Bm // A //
|--------2-------2-----0------------------|
|--------2-------3-----2------------------|
|--------2-------4-----2------------------|
|--------4-------4-----2------------------|
|--------4-------2-----0------------------|
|--------2--------------------------------|
	
	G //// Asus4 // A //
|-------3-------0-------0-----------------|
|-------3-------3-------2-----------------|
|-------0-------2-------2-----------------|
|-------0-------2-------2-----------------|
|-------2-------0-------0-----------------|
|-------3---------------------------------|
	F#m //// Bm // A //
|--------2-------2-----0------------------|
|--------2-------3-----2------------------|
|--------2-------4-----2------------------|
|--------4-------4-----2------------------|
|--------4-------2-----0------------------|
|--------2--------------------------------|

	G //// C // G //
|-------3------0----3---------------------|
|-------3------1----3---------------------|
|-------0------0----0---------------------|
|-------0------2----0---------------------|
|-------2------3----2---------------------|
|-------3-----------3---------------------|

BRIDGE
DMaj9 //// Cadd9 //// DMaj9 //// Cadd9 ////
|-0----------0---------0-----------0------|
|-2----------3---------2-----------3------|
|-2----------0---------2-----------0------|
|-0----------2---------0-----------2------|
|------------3---------------------3------|
|-----------------------------------------|

VERSE 2
DMaj9 //// Cadd9 //// DMaj9 //// Cadd9 ////
|-0----------0---------0-----------0------|
|-2----------3---------2-----------3------|
|-2----------0---------2-----------0------|
|-0----------2---------0-----------2------|
|------------3---------------------3------|
|-----------------------------------------|

DMaj9 //// Cadd9 //// Em //// Asus4 // A //
|-0----------0---------0--------0------0--|
|-2----------3---------0--------3------2--|
|-2----------0---------0--------2------2--|
|-0----------2---------2--------2------2--|
|------------3---------2--------0------0--|
|----------------------0------------------|
PRECHORUS 2
	F#m //// Bm // A //
|--------2-------2-----0------------------|
|--------2-------3-----2------------------|
|--------2-------4-----2------------------|
|--------4-------4-----2------------------|
|--------4-------2-----0------------------|
|--------2--------------------------------|

	G //// Asus4 // A //
|-------3-------0-------0-----------------|
|-------3-------3-------2-----------------|
|-------0-------2-------2-----------------|
|-------0-------2-------2-----------------|
|-------2-------0-------0-----------------|
|-------3---------------------------------|

	F#m //// Bm ////
|--------2-------2------------------------|
|--------2-------3------------------------|
|--------2-------4------------------------|
|--------4-------4------------------------|
|--------4-------2------------------------|
|--------2--------------------------------|

	Asus2 ////////
|-------0-------------------------|
|-------0-------------------------|
|-------2-------------------------|
|-------2-------------------------|
|-------0-------------------------|
|---------------------------------|

CHORUS 2
	G //// Asus4 // A //
|-------3-------0-------0-----------------|
|-------3-------3-------2-----------------|
|-------0-------2-------2-----------------|
|-------0-------2-------2-----------------|
|-------2-------0-------0-----------------|
|-------3---------------------------------|

	F#m //// Bm // A //
|--------2-------2-----0------------------|
|--------2-------3-----2------------------|
|--------2-------4-----2------------------|
|--------4-------4-----2------------------|
|--------4-------2-----0------------------|
|--------2--------------------------------|

	G //// Asus4 // A //
|-------3-------0-------0-----------------|
|-------3-------3-------2-----------------|
|-------0-------2-------2-----------------|
|-------0-------2-------2-----------------|
|-------2-------0-------0-----------------|
|-------3---------------------------------|

	F#m //// Bm // A //
|--------2-------2-----0------------------|
|--------2-------3-----2------------------|
|--------2-------4-----2------------------|
|--------4-------4-----2------------------|
|--------4-------2-----0------------------|
|--------2--------------------------------|

	G //// C // G //
|-------3------0----3---------------------|
|-------3------1----3---------------------|
|-------0------0----0---------------------|
|-------0------2----0---------------------|
|-------2------3----2---------------------|
|-------3-----------3---------------------|
SOLO
	DMaj9 //// AMaj11 // G //
|---------0----------0-------3------------|
|---------2----------3-------3------------|
|---------2----------0-------0------------|
|---------0----------2-------0------------|
|--------------------0-------2------------|
|----------------------------3------------|

	DMaj9 //// AMaj11 // G //
|---------0----------0-------3------------|
|---------2----------3-------3------------|
|---------2----------0-------0------------|
|---------0----------2-------0------------|
|--------------------0-------2------------|
|----------------------------3------------|

INTERLUDE
	DMaj9 //// AMaj11 // G //
|---------0----------0-------3------------|
|---------2----------3-------3------------|
|---------2----------0-------0------------|
|---------0----------2-------0------------|
|--------------------0-------2------------|
|----------------------------3------------|

	DMaj9 //// AMaj11 // G //
|---------0----------0-------3------------|
|---------2----------3-------3------------|
|---------2----------0-------0------------|
|---------0----------2-------0------------|
|--------------------0-------2------------|
|----------------------------3------------|

	DMaj9 //// AMaj11 // G //
|---------0----------0-------3------------|
|---------2----------3-------3------------|
|---------2----------0-------0------------|
|---------0----------2-------0------------|
|--------------------0-------2------------|
|----------------------------3------------|

	DMaj9 ////
|---------0-------------------------------|
|---------2-------------------------------|
|---------2-------------------------------|
|---------0-------------------------------|
|-----------------------------------------|
|-----------------------------------------|

Asus4 //// A //// Asus4 //// A ////
|--0-------0---------0-------0--------|
|--3-------2---------3-------2--------|
|--2-------2---------2-------2--------|
|--2-------2---------2-------2--------|
|--0-------0---------0-------0--------|
|-------------------------------------|
CHORUS 3
	G //// Asus4 // A //
|-------3-------0-------0-----------------|
|-------3-------3-------2-----------------|
|-------0-------2-------2-----------------|
|-------0-------2-------2-----------------|
|-------2-------0-------0-----------------|
|-------3---------------------------------|

	F#m //// Bm // A //
|--------2-------2-----0------------------|
|--------2-------3-----2------------------|
|--------2-------4-----2------------------|
|--------4-------4-----2------------------|
|--------4-------2-----0------------------|
|--------2--------------------------------|

	G //// Asus4 // A //
|-------3-------0-------0-----------------|
|-------3-------3-------2-----------------|
|-------0-------2-------2-----------------|
|-------0-------2-------2-----------------|
|-------2-------0-------0-----------------|
|-------3---------------------------------|
	F#m //// Bm // A //
|--------2-------2-----0------------------|
|--------2-------3-----2------------------|
|--------2-------4-----2------------------|
|--------4-------4-----2------------------|
|--------4-------2-----0------------------|
|--------2--------------------------------|

	G //// Asus4 // A //
|-------3-------0-------0-----------------|
|-------3-------3-------2-----------------|
|-------0-------2-------2-----------------|
|-------0-------2-------2-----------------|
|-------2-------0-------0-----------------|
|-------3---------------------------------|

	F#m //// Bm // A //
|--------2-------2-----0------------------|
|--------2-------3-----2------------------|
|--------2-------4-----2------------------|
|--------4-------4-----2------------------|
|--------4-------2-----0------------------|
|--------2--------------------------------|

G //// Asus4 // A //
|-------3-------0-------0-----------------|
|-------3-------3-------2-----------------|
|-------0-------2-------2-----------------|
|-------0-------2-------2-----------------|
|-------2-------0-------0-----------------|
|-------3---------------------------------|
	

	F#m //// Bm // A //
|--------2-------2-----0------------------|
|--------2-------3-----2------------------|
|--------2-------4-----2------------------|
|--------4-------4-----2------------------|
|--------4-------2-----0------------------|
|--------2--------------------------------|

	G //// Asus4 // A //
|-------3-------0-------0-----------------|
|-------3-------3-------2-----------------|
|-------0-------2-------2-----------------|
|-------0-------2-------2-----------------|
|-------2-------0-------0-----------------|
|-------3---------------------------------|

	F#m //// Bm // A //
|--------2-------2-----0------------------|
|--------2-------3-----2------------------|
|--------2-------4-----2------------------|
|--------4-------4-----2------------------|
|--------4-------2-----0------------------|
|--------2--------------------------------|

	G //// Asus4 // A //
|-------3-------0-------0-----------------|
|-------3-------3-------2-----------------|
|-------0-------2-------2-----------------|
|-------0-------2-------2-----------------|
|-------2-------0-------0-----------------|
|-------3---------------------------------|

	F#m //// Bm // A //
|--------2-------2-----0------------------|
|--------2-------3-----2------------------|
|--------2-------4-----2------------------|
|--------4-------4-----2------------------|
|--------4-------2-----0------------------|
|--------2--------------------------------|

	G //// Asus4 // A //
|-------3-------0-------0-----------------|
|-------3-------3-------2-----------------|
|-------0-------2-------2-----------------|
|-------0-------2-------2-----------------|
|-------2-------0-------0-----------------|
|-------3---------------------------------|

	F#m //// Bm // A //
|--------2-------2-----0------------------|
|--------2-------3-----2------------------|
|--------2-------4-----2------------------|
|--------4-------4-----2------------------|
|--------4-------2-----0------------------|
|--------2--------------------------------|


OUTRO - Fade out on this progression
G //// Asus4 // A //
|-------3-------0-------0-----------------|
|-------3-------3-------2-----------------|
|-------0-------2-------2-----------------|
|-------0-------2-------2-----------------|
|-------2-------0-------0-----------------|
|-------3---------------------------------|
	F#m //// Bm // A //
|--------2-------2-----0------------------|
|--------2-------3-----2------------------|
|--------2-------4-----2------------------|
|--------4-------4-----2------------------|
|--------4-------2-----0------------------|
|--------2--------------------------------|


Chords
  A Asus2 Asus4 AMaj11 Bm C Cadd9 DMaj9 Em F#m G
|-0---0-----0------0---2--0---0-----0---0---2--3-|
|-2---0-----3------3---3--1---3-----2---0---2--3-|
|-2---2-----2------0---4--0---0-----2---0---2--0-|
|-2---2-----2------2---4--2---2-----0---2---4--0-|
|-0---0-----0------0---2--3---3---------2---4--2-|
|---------------------------------------0---2--3-|



            
            
Suggest correction
Creating personal tab
Creating personal tab
You can edit any tab online and save it as your Personal.

You can edit, replace or remove any tab part or add personal notes – all changes will be seen only by you.

Personal tabs can be accessed anytime from any device, even offline.
Learn more »
comments
print report bad tab
2 comments total.
0 reply
Duolith 30 Aug 11, 2009 12:06 AM

This tab is the other one, but stretched out by putting the chord diagrams under each chord........... you dumass...

0 reply
jazzza_s 10 Nov 04, 2010 03:36 AM

the second part of the intro should have be:
5-5-5-5-5-5-5-5
3-3-3-3-3-3-3-3
0-0-0-0-0-0-0-0
--------------
--------------
--------------

guest
Wanna post a correction for this tab? Suggest correction