Oops, an error
Loading. Please wait.

Davanti Agli Occhi Miei Tab

1 view 1 this week
no commentswrite comment
1 2 3 4 5
3 more votes to show rating
add to favorites
launch autoscroll
font size
0
reset
how to read this tab
guitar tuner
Autoscroll
slow
fast
+/-
esc
set tempo
stop
Help us to improve Ultimate-Guitar.com Take our survey!
×
Author
E |-5-5---5-8-7-7-8-7---5---|-5-5-----------------------------|-------------------|
B |-----8-------------8---8-|-----8---7---8-8-7-5-7-5---5-----|-------------------|
G |-------------------------|-------------------------7---7-5-|-7-5-4-5-4---4-----|
D |-7-7-7-7-7-7-7-----7-----|-7-7-7-7---7---7-----7-----7-----|-----------7---7-5-|
A |-5-5-5-5-5-5-5-----5-----|-5-5-5-5---5---5-----5-----5-----|-------------------|
E |-------------------------|---------------------------------|-------------------|

E |-------------------------------|-------------------------------|-------------------------------|
B |-------------------------------|-------------------------------|-------------------------------|
G |-----------5-6-7-5-5-4---4-----|-----------5-6-7-5-5-4---4-----|-----------5-6-7-5-5-4---4-----|
D |-7-7-5-7---------------7---7-5-|-7-7-5-7---------------7---7-5-|-7-7-5-7---------------7---7-5-|
A |-5-5-----5-------5-------5-----|-5-5-----5-------5-------5-----|-5-5-----5-------5-------5-----|
E |-------------------------------|-------------------------------|-------------------------------|

E |-------------------------------|-------------|-------------|---------------------------------|
B |-------------------------------|-------------|-------------|-----7-----7-------7-5---------5-|
G |-----------5-6-7-5-5-4---4-----|-------------|---7-7-------|---7-----7-------6-----6-----6---|
D |-7-7-5-7---------------7---7-5-|-7-7-7-9-7-7-|-9-----9-7-7-|-7-----7-----7-7---------7-7-----|
A |-5-5-----5-------5-------5-----|-5-----------|-------------|---------------------------------|
E |-------------------------5-----|-5-----------|-------------|---------------------------------|
Suggest correction
Give kudos to tab author, rate the tab!
1 2 3 4 5
comments
print report bad tab
guest
You may want to rate the tab now too:
select rating
Wanna post a correction for this tab? Suggest correction