Oops, an error
Loading. Please wait.

Ti Ricordi Joe Tab

4 views 1 this week
no commentswrite comment
1 2 3 4 5
2 more votes to show rating
add to favorites
launch autoscroll
font size
0
reset
how to read this tab
guitar tuner
Autoscroll
slow
fast
+/-
esc
set tempo
stop
Help us to improve Ultimate-Guitar.com Take our survey!
×
Author
Difficulty
novice
[Intro]
E|----------------0---------0-----|----------------0---------0-----|
A|----------------2---------2-----|----------------3---------3-----|
D|----------------1---------1-----|----------------4---------4-----|
G|----------2---------------------|----------4---------------------|
B|----0---------------------------|----0---------------------------|
E|--------------------------------|--------------------------------|

[Verse]
E|----------------0---------0-----|----------------0---------0-----|
A|----------------2---------2-----|----------------3---------3-----|
D|----------------1---------1-----|----------------4---------4-----|
G|----------2---------------------|----------4---------------------|
B|----0---------------------------|----0---------------------------|
E|--------------------------------|--------------------------------|
      Ti ricordi,                       Joe
      
E|----------------0---------0-----|----------------0---------0-----|
A|----------------2---------2-----|----------------3---------3-----|
D|----------------1---------1-----|----------------4---------4-----|
G|----------2---------------------|----------4---------------------|
B|----0---------------------------|----0---------------------------|
E|--------------------------------|--------------------------------|
      Era verde,                        laggiù      
      
E|----------------0---------0-----|----------------0---------0-----|
A|----------------2---------2-----|----------------3---------3-----|
D|----------------1---------1-----|----------------4---------4-----|
G|----------2---------------------|----------4---------------------|
B|----0---------------------------|----0---------------------------|
E|--------------------------------|--------------------------------|
      Era verde,                        il mare            

E|----------------0---------0-----|----------------0---------0-----|
A|----------------2---------2-----|----------------3---------3-----|
D|----------------1---------1-----|----------------4---------4-----|
G|----------2---------------------|----------4---------------------|
B|----0---------------------------|----0---------------------------|
E|--------------------------------|--------------------------------|
      a Mani-la
      
      
[Verse]
E|----------------0---------0-----|----------------0---------0-----|
A|----------------2---------2-----|----------------3---------3-----|
D|----------------1---------1-----|----------------4---------4-----|
G|----------2---------------------|----------4---------------------|
B|----0---------------------------|----0---------------------------|
E|--------------------------------|--------------------------------|
      Ti ricordi,                       Joe
      
E|----------------0---------0-----|----------------0---------0-----|
A|----------------2---------2-----|----------------3---------3-----|
D|----------------1---------1-----|----------------4---------4-----|
G|----------2---------------------|----------4---------------------|
B|----0---------------------------|----0---------------------------|
E|--------------------------------|--------------------------------|
      Eran tanti                        laggiù      
      
E|----------------0---------0-----|----------------0---------0-----|
A|----------------2---------2-----|----------------3---------3-----|
D|----------------1---------1-----|----------------4---------4-----|
G|----------2---------------------|----------4---------------------|
B|----0---------------------------|----0---------------------------|
E|--------------------------------|--------------------------------|
      Coi fucili                        nascosti

E|----------------0---------0-----|----------------0---------0-----|
A|----------------2---------2-----|----------------3---------3-----|
D|----------------1---------1-----|----------------4---------4-----|
G|----------2---------------------|----------4---------------------|
B|----0---------------------------|----0---------------------------|
E|--------------------------------|--------------------------------|
      tra i fiori
      
      
      
[Chorus]
E|--------------------------------|
A|--------------------2-----------|
D|--------------------2-----------|
G|--------------------2-----------|
B|--------0---2-------------------|
E|0---2---------------------------|

A      E            D     E 
Quante stagioni passarono là

E|--------------------------------|
A|--------------------2-----------|
D|--------------------2-----------|
G|--------------------2-----------|
B|--------0---2-------------------|
E|0---2---------------------------|

A      E      D       F
Quanti colori inutili ormai
A             F       A          F
Per occhi già stanchi oppure già chiusi

E|----------------0---------0-----|----------------0---------0-----|
A|----------------2---------2-----|----------------3---------3-----|
D|----------------1---------1-----|----------------4---------4-----|
G|----------2---------------------|----------4---------------------|
B|----0---------------------------|----0---------------------------|
E|--------------------------------|--------------------------------|
      per sempre                                

[Verse]
E|----------------0---------0-----|----------------0---------0-----|
A|----------------2---------2-----|----------------3---------3-----|
D|----------------1---------1-----|----------------4---------4-----|
G|----------2---------------------|----------4---------------------|
B|----0---------------------------|----0---------------------------|
E|--------------------------------|--------------------------------|
      Ti ricordi,                       Joe
      
E|----------------0---------0-----|----------------0---------0-----|
A|----------------2---------2-----|----------------3---------3-----|
D|----------------1---------1-----|----------------4---------4-----|
G|----------2---------------------|----------4---------------------|
B|----0---------------------------|----0---------------------------|
E|--------------------------------|--------------------------------|
      Ti ricordi                        di Sam 
      
E|----------------0---------0-----|----------------0---------0-----|
A|----------------2---------2-----|----------------3---------3-----|
D|----------------1---------1-----|----------------4---------4-----|
G|----------2---------------------|----------4---------------------|
B|----0---------------------------|----0---------------------------|
E|--------------------------------|--------------------------------|
      con il cuore                      coperto

E|----------------0---------0-----|----------------0---------0-----|
A|----------------2---------2-----|----------------3---------3-----|
D|----------------1---------1-----|----------------4---------4-----|
G|----------2---------------------|----------4---------------------|
B|----0---------------------------|----0---------------------------|
E|--------------------------------|--------------------------------|
      di mosche
      
[Verse]
E|----------------0---------0-----|----------------0---------0-----|
A|----------------2---------2-----|----------------3---------3-----|
D|----------------1---------1-----|----------------4---------4-----|
G|----------2---------------------|----------4---------------------|
B|----0---------------------------|----0---------------------------|
E|--------------------------------|--------------------------------|
      E c'è ancora                      chi
      
E|----------------0---------0-----|----------------0---------0-----|
A|----------------2---------2-----|----------------3---------3-----|
D|----------------1---------1-----|----------------4---------4-----|
G|----------2---------------------|----------4---------------------|
B|----0---------------------------|----0---------------------------|
E|--------------------------------|--------------------------------|
      Va dicendo                        che noi
      
E|----------------0---------0-----|----------------0---------0-----|
A|----------------2---------2-----|----------------3---------3-----|
D|----------------1---------1-----|----------------4---------4-----|
G|----------2---------------------|----------4---------------------|
B|----0---------------------------|----0---------------------------|
E|--------------------------------|--------------------------------|
      Noi marines                       non avevamo

E|----------------0---------0-----|----------------0---------0-----|
A|----------------2---------2-----|----------------3---------3-----|
D|----------------1---------1-----|----------------4---------4-----|
G|----------2---------------------|----------4---------------------|
B|----0---------------------------|----0---------------------------|
E|--------------------------------|--------------------------------|
      un cuore

[Chorus]
E|--------------------------------|
A|--------------------2-----------|
D|--------------------2-----------|
G|--------------------2-----------|
B|--------0---2-------------------|
E|0---2---------------------------|

A      E            D     E 
Quante stagioni passarono là

E|--------------------------------|
A|--------------------2-----------|
D|--------------------2-----------|
G|--------------------2-----------|
B|--------0---2-------------------|
E|0---2---------------------------|

A      E      D       F
Quanti colori inutili ormai
A             F       A          F
Per occhi già stanchi oppure già chiusi

E|----------------0---------0-----|----------------0---------0-----|
A|----------------2---------2-----|----------------3---------3-----|
D|----------------1---------1-----|----------------4---------4-----|
G|----------2---------------------|----------4---------------------|
B|----0---------------------------|----0---------------------------|
E|--------------------------------|--------------------------------|
      per sempre...
      
E|----------------0---------0-----|
A|----------------2---------2-----|
D|----------------1---------1-----|
G|----------2---------------------|
B|----0---------------------------|
E|--------------------------------|
Suggest correction
Give kudos to tab author, rate the tab!
1 2 3 4 5
comments
print report bad tab
guest
You may want to rate the tab now too:
select rating
Wanna post a correction for this tab? Suggest correction