Oops, an error
Loading. Please wait.

Visioni Chords

version 1
version 1

Whole song

  • Complete album version, including intro/outro/tabs for the small solos.
4 views 1 this week
no commentswrite comment
1 2 3 4 5
3 more votes to show rating
add to favorites
launch autoscroll
font size
0
reset
transpose
0
reset
simplify chords
display chords
guitar tuner
Autoscroll
slow
fast
+/-
esc
set tempo
stop
Help us to improve Ultimate-Guitar.com Take our survey!
×
Author
Difficulty
intermediate
About this tab version
Complete album version, including intro/outro/tabs for the small solos. Was this info helpful? Yes No
[Intro]
#Tapping insistito con distorsore 
E|---10---TAP-12-|-----------|  
A|---------------|-----------|   
D|---------------|-----------|        
G|---------------|-9--9------|       
B|---------------|-7--7------|        
E|---------------|-----------|        

  E          D           E          D
E|----------|-----------|----------|-----------|
A|----------|-----------|----------|-----------|
D|----------|-----------|----------|-----------|
G|---6-7-6--|---4-5-4---|---6-7-6--|---4-5-4---|
B|-7------7-|-5-------5-|-7------7-|-5-------5-|
E|----------|-----------|----------|-----------|

[Verse]
E                    D 
Risplende l'alba già e sono solo ormai,
E                    D 
ripenso ancora a noi a poche ore fa
E         D                  E         D       B  B7 
Quando parlavo insieme a te, quando tu eri con me

[Chorus]
E              A              E           A 
Vedo gli occhi tuoi il viso e poi le mani tue
A                E         C#m         F#7          B  B7
Che ho stretto a me rivedo te     come se     fossi qui

[Solo]
  E          D           E          D
E|----------|-----------|----------|-----------|
A|----------|-----------|----------|-----------|
D|----------|-----------|----------|-----------|
G|---6-7-6--|---4-5-4---|---6-7-6--|---4-5-4---|
B|-7------7-|-5-------5-|-7------7-|-5-------5-|
E|----------|-----------|----------|-----------|

[Verse]
E                  D 
Il buio scenderà e tu ritornerai
E                  D 
manca poco ormai e sto pensando già
E        D               E        D       B  B7 
Quando riparlerò con te, quando sarai con me

[Chorus]
E              A              E           A 
Vedo gli occhi tuoi il viso e poi le mani tue
           E         C#m        F#7           B  B7 
Che stringerò rivedo te    come se      fossi qui
E              A              E           A 
Vedo gli occhi tuoi il viso e poi le mani tue
A                E             C#m       F#7      B  B7   
Che ho stretto a me che stringerò quando tu sarai qui

[Solo]
  E          D           E          D
E|----------|-----------|----------|-----------|
A|----------|-----------|----------|-----------|
D|----------|-----------|----------|-----------|
G|---6-7-6--|---4-5-4---|---6-7-6--|---4-5-4---|
B|-7------7-|-5-------5-|-7------7-|-5-------5-|
E|----------|-----------|----------|-----------|

[Outro]
E                  D 
Manca poco ormai e tu ritornerai
E                   D 
Sto aspettando te e so che tu verrai
E         D                E       D        E  D  E 
Vedo che stai venendo qui, ora sei quasi da me-e--e-e


#Tab by hey giò - novembre 1999
#gdegortes@ttiscalinet.it
Suggest correction
Give kudos to tab author, rate the tab!
1 2 3 4 5
comments
print report bad tab
guest
You may want to rate the tab now too:
select rating
Wanna post a correction for this tab? Suggest correction