Oops, an error
Loading. Please wait.

Kill Or Be Killed tab

version 1
version 1

Whole song

Interactive

2,754 views 6 this week
1 commentread comment
1 2 3 4 5
x 3
add to favorites
×
Save as Personal and add changes to this tab that will be seen only by you. Learn more ›
×
You can save this tab as Personal to edit and correct it or add notes. All changes will be seen only by you. Learn more »
launch autoscroll
font size
0
reset
how to read this tab
guitar tuner
edit
Autoscroll
slow
fast
+/-
esc
set tempo
stop
-------------------------------------------------------------------------------
                   NEW YEARS DAY - Kill Or Be Killed
-------------------------------------------------------------------------------
Tabbed by: GaleForceRocks
E-mail: galeforce100@icloud.com

Tuning: Drop A

The lead and rhythm guitars play the same part except in the choruses and bridge.
Please also check out my guitar pro tab of this song!

Intro Part 1
B |---------------------------------------------------------------------------|
F#|---------------------------------------------------------------------------|
D |-14-14-14----14-14-14------------------------------------------------------|
A |-13-13-13----13-13-13------------------------------------------------------|
E |-12-12-12----12-12-12------------------------------------------------------|
A |---------------------------------------------------------------------------|

Intro Part 2 (x2)
B |-----------------------------------------------------------------|
F#|-----------------------------------------------------------------|
D |-------------------------------14--------------------------------|
A |-------------------------------13--------------------------------|
E |-------------------------------12--------------------------------|
A |-1-3-1-0---0---1---0-0-----0-------0-0-----0---x-1-3-1-0-1-3-1-0-|

B |-----------------------------------------------------------------|
F#|-----------------------------------------------------------------|
D |-------------------------------14------------------11------11----|
A |-------------------------------13------------------10------10----|
E |-------------------------------12------------------9-------9-----|
A |-1-3-1-0---0---1---0-0-----0-------0-0-----0---0-0-------0-------|

Verse 1 (x2)
B |-----------------------------------------------------------------------------------|
F#|-----------------------------------------------------------------------------------|
D |-----------------------------------------------------------------------------------|
A |-----------------------------------------------------------------------------------|
E |-0-0-----0---0--x-0-0-----6---0--x-0-0-----0---0--x-8-8-8-8-5-5-5-5-7-7-0-0-8-1----|
A |-0-0-----0---0--x-0-0-----7---0--x-0-0-----0---0--x-8-8-8-8-5-5-5-5-7-7-0-0---1----|

Pre-Chorus 1
B |---------------------------------|
F#|---------------------------------|
D |---------------------------------|
A |-0-0-0-0-3-3-3-3-5-5-5-5-8-8-8-8-| x3
E |-0-0-0-0-3-3-3-3-5-5-5-5-8-8-8-8-|
A |-0-0-0-0-3-3-3-3-5-5-5-5-8-8-8-8-|

B |---------------------------------|
F#|---------------------------------|
D |---------------------------------|
A |-0-0-0-0-3-3-3-3-5-5-5-5-5\------|
E |-0-0-0-0-3-3-3-3-5-5-5-5-5\------|
A |-0-0-0-0-3-3-3-3-5-5-5-5-5\------|

Chorus 1 (Rhythm)
B |----------------------------------------------------------------------------|
F#|----------------------------------------------------------------------------|
D |-----------------3-------3----5--------------------3-------5----------------|
A |-0-------3-------3-(x16)-3(x8)5(x8)0-------3-------3-(x16)-5(x8)------------|
E |-0-(x16)-3-(x16)-1-------1----3----0-(x16)-3-(x16)-1-------3----------------|
A |-0-------3-------------------------0-------3--------------------1-3-1-0-1---|

Chorus 1 (Lead)
B |---------------------------------------------------------------------------|
F#|---------------------------------------------------------------------------|
D |-19------17------19------19--21--19------17------19------21----------------|
A |----(x8)----(x8)----(x8)-(x4)(x4)---(x8)----(x8)----(x8)---(x4)------------|
E |-17------15------17------17--19--17------15------17------19----------------|
A |---------------------------------------------------------------1-3-1-0-1---|

Interlude (same as intro part 2)

Verse 2 Part 1 (silent)

Verse 2 Part 2
B |-----------------------------------------------------------------|
F#|-----------------------------------------------------------------|
D |-----------------------------------------------------------------|
A |-----------------------------------------------------------------|
E |-0-0-0---0-0-0---0-0-0---0-3-1-0-0-0-0---0-0-0---0-0-0---0-3-3-3-|
A |-0-0-0---0-0-0---0-0-0---0-3-1-0-0-0-0---0-0-0---0-0-0---0-3-3-3-|

B |-----------------------------------------------------------------|
F#|-----------------------------------------------------------------|
D |---------------------------------------------------11------11----|
A |---------------------------------------------------10------10----|
E |-0-0-0---0-0-0---0-0-0---0-3-1-0-0-0-0---0-0-0---0-9-----0-9-----|
A |-0-0-0---0-0-0---0-0-0---0-3-1-0-0-0-0---0-0-0---0-------0-------|

Pre-Chorus 2 (same as pre-chorus 1)

Chorus 2 (Rhythm)
B |--------------------------------------------------------------------------------|
F#|--------------------------------------------------------------------------------|
D |-----------------3-------3----5--------------------3-------5--------------------|
A |-0-------3-------3-(x16)-3(x8)5(x8)0-------3-------3-(x16)-5(x8)----------------|
E |-0-(x16)-3-(x16)-1-------1----3----0-(x16)-3-(x16)-1-------3--------------------|
A |-0-------3-------------------------0-------3--------------------1-3-1-0-1-3-1-0-|

Chorus 2 (Lead)
B |-------------------------------------------------------------------------------|
F#|-------------------------------------------------------------------------------|
D |-19------17------19------19--21--19------17------19------21--------------------|
A |----(x8)----(x8)----(x8)-(x4)(x4)---(x8)----(x8)----(x8)---(x4)----------------|
E |-17------15------17------17--19--17------15------17------19--------------------|
A |---------------------------------------------------------------1-3-1-0-1-3-1-0-|

Bridge Part 1
B |-----------------|
F#|-----------------|
D |-----------------|
A |-----------------| x7
E |-----------------|
A |-0-3-1-0---0---0-|

Bridge Part 2 (Rhythm) (x2)
B |-----------------------------------------------------------------|
F#|-----------------------------------------------------------------|
D |-----------------------------------------------------------------|
A |-----------------------------------------------------------------|
E |-0-3-1-0---0---0-0---0---0-0---0-0-4-1-0---0---0-0---0---0-0---0-|
A |-0-3-1-0---0---0-0---0---0-0---0-0-4-1-0---0---0-0---0---0-0---0-|

B |-----------------------------------------------------------------|
F#|-----------------------------------------------------------------|
D |---------------------------------------------------11------11----|
A |---------------------------------------------------10------10----|
E |-0-3-1-0---0---0-0---0---0-0---0-0-4-1-0---0---0-0-9-----0-9-----|
A |-0-3-1-0---0---0-0---0---0-0---0-0-4-1-0---0---0-0-------0-------|

Bridge Part 2 (Lead) (Only second time)
B |-----------------------------------------------------------------|
F#|---------------------------------5-------------------------------|
D |-----------------------------------------------------------------|
A |-----------------------------------------------------------------|
E |-0-3-1-0---0---0-0---0---0-0---0---------------------------------|
A |-0-3-1-0---0---0-0---0---0-0---0---------------------------------|

B |---------------------------------5-------------------------------|
F#|-6---------------------------------------------------------------|
D |-----------------------------------------------------------------|
A |-----------------------------------------------------------------|
E |-----------------------------------------------------------------|
A |-----------------------------------------------------------------|

Chorus 3 (Rhythm)
B |--------------------------------------------------------------------------------|
F#|--------------------------------------------------------------------------------|
D |-----------------3-------3----5--------------------3-------5--------------------|
A |-0-------3-------3-(x16)-3(x8)5(x8)0-------3-------3-(x16)-5(x8)----------------|
E |-0-------3-------1-------1----3----0-(x16)-3-(x16)-1-------3--------------------|
A |-0-------3-------------------------0-------3--------------------1-3-1-0-1-3-1-0-|

Chorus 3 (Lead)
B |-------------------------------------------------------------------------------|
F#|-------------------------------------------------------------------------------|
D |-----------------19------19--21--19------17------19------21--------------------|
A |--------------------(x8)-(x4)(x4)---(x8)----(x8)----(x8)---(x4)----------------|
E |-----------------17------17--19--17------15------17------19--------------------|
A |---------------------------------------------------------------1-3-1-0-1-3-1-0-|

Chorus 4 (Rhythm)
B |------------------------------------------------------------------|
F#|------------------------------------------------------------------|
D |-----------------3-------3----5--------------------3-------5------|
A |-0-------3-------3-(x4)--3(x2)5(x2)0-------3-------3-(x4)--5-(x3)-|
E |-0-(x4)--3-(x4)--1-------1----3----0-(x4)--3-(x4)--1-------3------|
A |-0-------3-------------------------0-------3----------------------|

Chorus 4 (Lead)
B |-22------20------22--------------22------20------22------24br----|
F#|-------------------------15--17----------------------------------|
D |-----------------------------------------------------------------|
A |-----------------------------------------------------------------|
E |-----------------------------------------------------------------|
A |-----------------------------------------------------------------|

Outro
B |-----------------------------------------------------------------|
F#|-----------------------------------------------------------------|
D |-----------------------------------------------------------------|
A |-----------------------------------------------------------------|
E |-0-0-0---0-0-0---0-0-0---0-3-1-0-0-0-0---0-0-0---0-0-0---0-3-3-3-|
A |-0-0-0---0-0-0---0-0-0---0-3-1-0-0-0-0---0-0-0---0-0-0---0-3-3-3-|

B |-----------------------------------------------------------------|
F#|-----------------------------------------------------------------|
D |---------------------------------------------------11----1111----|
A |---------------------------------------------------10----1010----|
E |-0-0-0---0-0-0---0-0-0---0-3-1-0-0-0-0---0-0-0---0-9---0-9-9-----|
A |-0-0-0---0-0-0---0-0-0---0-3-1-0-0-0-0---0-0-0---0-----0---------|

Thanks for reading the tab, please rate and comment corrections!

************************************

| /   slide up
| \   slide down
| h   hammer-on
| p   pull-off
| ~   vibrato
| +   harmonic
| x   Mute note
| b   Bend
| pb  Pre-bend
| br  Bend release
| pbr Pre-bend release
| brb Bend release bend

************************************

            
            
Suggest correction
Creating personal tab
Creating personal tab
You can edit any tab online and save it as your Personal.

You can edit, replace or remove any tab part or add personal notes – all changes will be seen only by you.

Personal tabs can be accessed anytime from any device, even offline.
Learn more »
Give kudos to tab author, rate the tab!
1 2 3 4 5
comments
print report bad tab
1 comment total.
0 reply
ineffable3391 10 Aug 24, 2017 01:54 PM

accurate

guest
You may want to rate the tab now too:
select rating
Wanna post a correction for this tab? Suggest correction