Oops, an error
Loading. Please wait.

Two In The Chest One In The Head Tab

668 views 1 this week
1 commentread comment
1 2 3 4 5
please rate
add to favorites
launch autoscroll
font size
0
reset
how to read this tab
guitar tuner
Autoscroll
slow
fast
+/-
esc
set tempo
stop
Help us to improve Ultimate-Guitar.com Take our survey!
×
Author
Tuning
D A D G B E
Two In The Chest, One In The Head by New Years Day

INTRO:
e|-------------------|
B|-------------------|
G|-------------------|
D|-037-7--037706-3-3-| X4
A|-037-7--037706-3-3-|
D|-037-7--037706-3-3-|

VERSE:
e|-------------------|
B|-------------------|
G|-------------------|
D|-------------------| X2
A|-------------------|
D|-037-7--037706-3-3-|
   ... .  ...... . . 

e|-------------------|
B|-------------------|
G|-------------------|
D|-037-7--037706-3-3-| X2
A|-037-7--037706-3-3-|
D|-037-7--037706-3-3-|

e|-------------------|
B|-------------------|
G|-------------------|
D|-------------------| X2
A|-------------------|
D|-037-7--037706-3-3-|
   ... .  ...... . . 

e|---------|
B|---------|
G|---------|
D|-0~--0-0~|
A|-0~--0-0~|
D|-0~--0-0~|

CHORUS:
e|-----------------------------------------|
B|-----------------------------------------|
G|--------5-------------5-------------0----|
D|-10--3--5--0-7-10--3--5--0-7-8--10--5--0~| (I didn't draw at the strum patterns, obviously)
A|--8--3--3--0-7--8--3--3--0-7-8--10--4--0~|
D|--8--3-----0-7--8--3-----0-7-8--10-----0~|

BRIDGE:
e|-------------------------------|
B|-------------------------------|
G|-------------------------------| X4
D|-------------------------------|
A|-------------------------------|
D|-0-0-7-0-0-7-0-0-6-0-0-5-0-0-3-|
Suggest correction
Give kudos to tab author, rate the tab!
1 2 3 4 5
comments
print report bad tab
1 comment total.
0 reply
werty123412 67 wrote on July 15 2015, 02:57 pm

Just fir anyone's edification the chorus broken down appropriately. As for the strum pattern you can pick it up easily by listening to the song once or twice. Not that difficult.

e|---------------|------------------------|
B|---------------|------------------------|
G|--------5------|-------5-----------0----|
D|-10--3--5--0-7-|10--3--5--0-7--10--5--0~|
A|--8--3--3--0-7-|-8--3--3--0-7--10--4--0~|
D|--8--3-----0-7-|-8--3-----0-7--10-----0~|
x2 3rd time

guest
You may want to rate the tab now too:
select rating
Please do not post tabs as comments. Select "correction" instead!