Oops, an error
Loading. Please wait.

Jet Boy tab

17,140 views 9 this week
2 commentsread comments
1 2 3 4 5
x 6
add to favorites
×
Save as Personal and add changes to this tab that will be seen only by you. Learn more ›
×
You can save this tab as Personal to edit and correct it or add notes. All changes will be seen only by you. Learn more »
launch autoscroll
font size
0
reset
how to read this tab
guitar tuner
edit
Autoscroll
slow
fast
+/-
esc
set tempo
stop
Author
Artist: New York Dolls
Album: New York Dolls
Song: Jet Boy

Here is the last song on the New York Dolls' 1973 debut album. I know that many people 
to learn this intro riff and it took me awhile to get it down. I don't know the solo but 
else is here. Enjoy!

Intro Riff & Verse

e|---------------|--2--2-2-----------|
B|–-5-5-----5-5--|--3--3-3---0--0----|
G|–-5-5-----5—5--|--2--2-2---0--0----|
D|–-5-5--7--5-5--|--0--0-0---0--0----|
A|-------7-------|-----------2--2----|
E|---------------|-----------3--3----|

Chorus

A
Jet boys fly
G
Jet boys gone
A                G
Jet boy stole my baby

  Thunders
e|----------------------|----------------------|
B|----------------------|----------------------|
G|----------------------|--0-0--0-0--0-0--0-0--|
D|--2-2--4-2--2-2--4-2--|--0-0--2-0--0-0--2-0--|
A|--0-0--0-0--0-0--0-0--|--x-x--x-x--x-x--x-x--|
E|----------------------|--3-3--3-3--3-3--3-3--|

  Sylvain
e|----------------------|----------------------|
B|----------------------|----------------------|
G|----------------------|----------------------|
D|----------------------|----------------------|
A|--7-7--9-7--7-7--9-7--|--5-5--7-5--5-5--7-5--|
E|--5-5--5-5--5-5--5-5--|--3-3--3-3--3-3--3-3--|


A                     G
Flyin around New York City so high
A              G
Like he was my baby

Solo Chords

A C

That's basically it for the song. Just play the intro riff and the chorus blues riff and 
it. For comments or questions email me: modernage13@yahoo.com

Done on (2-23-2007)

            
            
Suggest correction
Creating personal tab
Creating personal tab
You can edit any tab online and save it as your Personal.

You can edit, replace or remove any tab part or add personal notes – all changes will be seen only by you.

Personal tabs can be accessed anytime from any device, even offline.
Learn more »
comments
print report bad tab
2 comments total.
0 reply
maxduffs 67 Jun 11, 2007 12:31 PM

nice job

0 reply
swave75 382 Nov 17, 2012 12:41 PM

Pretty cool dude

guest
You may want to rate the tab now too:
select rating
Wanna post a correction for this tab? Suggest correction