Oops, an error
Loading. Please wait.

Good Things tab

version 1
version 1

Whole song

  • This is the whole song, not just the intro or the ... Show more
by Newday
16 views 1 this week
no commentswrite comment
1 2 3 4 5
3 more votes to show rating
add to favorites
×
Save as Personal and add changes to this tab that will be seen only by you. Learn more ›
×
You can save this tab as Personal to edit and correct it or add notes. All changes will be seen only by you. Learn more »
launch autoscroll
font size
0
reset
how to read this tab
guitar tuner
edit
Autoscroll
slow
fast
+/-
esc
set tempo
stop
About this tab version
This is the whole song, not just the intro or the solo, but it has riffs for the chorus, verse bridge etc. It was made it so that people can play it if they bring their guitars to newday -- hint hint East Grinstead Ukulele Squad. Was this info helpful? Yes No
[Intro/Main Riff]
e|-----------------------------|-------/14-|
B|---10-12/14-12\10---------10-|-----------|
G|-11---------------11-9-11----|-----------|
D|-----------------------------|-----------|
A|-----------------------------|-----------|
E|-----------------------------|-----------|

[Verse]
e|-----------------------------|-----------------------------|
B|-----------------------------|-----------------------------|
G|-----------------------------|-----------------------------|
D|-----------------------------|-----------------------------|
A|-5-5-4-5---------------------|-5-5-4-5-------------------7-|
E|-----------------------------|-----------------------------|

e|-----------------------------|-----------------------------|
B|-----------------------------|-----------------------------|
G|-----------------------------|-----------------------------|
D|-----------------------------|-----------------------------|
A|-9-9-7-9---------------------|-9-9-7-9-------------------7-|
E|-----------------------------|-----------------------------|

[Pre-Chorus 1]
e|-----------------------------|-----------------------------|
B|-----------------------------|-----------------------------|
G|-----------------------------|-----------------------------|
D|-----------------------------|------------------------11-9-|
A|-2~~~0-2---------------------|-5~~~4-5--------9-11-12------|
E|-------------------2~~~0-2---|-----------------------------|

e|-----------------------------|-----------------------------|
B|-----------------------------|-----------------------------|
G|-----------------------------|-----------------------------|
D|-----------------------------|-----------------------------|
A|-2~~~0-2---------------------|-5~~~4-5---------------------|
E|-------------------2~~~0-2---|-----------------------------|

[Chorus] 
(Guitar 1)
e|-----------------------------|-----------------------------|
B|-----------------------------|-----------------------------|
G|-----------------------------|-----------------------------|
D|-----------------------------|-----------------------------|
A|-5-5---4-5-5---7-7-----------|-9-9---7-9-9---9-7-7---------|
E|-----------------------------|-----------------------------|

[Chorus] 
(Guitar 2)
e|--------------------------------|
B|--------------------------------|
G|--------------------------------|
D|-----7-------7-------7-------7--|
A|-7-9---9-7-9---9-7-9---9-7-9---9|
E|--------------------------------|

[Main Riff]
e|-----------------------------|-------/14-|
B|---10-12/14-12\10---------10-|-----------|
G|-11---------------11-9-11----|-----------|
D|-----------------------------|-----------|
A|-----------------------------|-----------|
E|-----------------------------|-----------|

[Verse]
e|-----------------------------|-----------------------------|
B|-----------------------------|-----------------------------|
G|-----------------------------|-----------------------------|
D|-----------------------------|-----------------------------|
A|-5-5-4-5---------------------|-5-5-4-5-------------------7-|
E|-----------------------------|-----------------------------|

e|-----------------------------|-----------------------------|
B|-----------------------------|-----------------------------|
G|-----------------------------|-----------------------------|
D|-----------------------------|-----------------------------|
A|-9-9-7-9---------------------|-9-9-7-9-------------------7-|
E|-----------------------------|-----------------------------|

[Pre-Chorus]
e|-----------------------------|-----------------------------|
B|-----------------------------|-----------------------------|
G|-----------------------------|-----------------------------|
D|-----------------------------|------------------------11-9-|
A|-2~~~0-2---------------------|-5~~~4-5--------9-11-12------|
E|-------------------2~~~0-2---|-----------------------------|

e|-----------------------------|-----------------------------|
B|-----------------------------|-----------------------------|
G|-----------------------------|-----------------------------|
D|-----------------------------|-----------------------------|
A|-2~~~0-2---------------------|-5~~~4-5---------------------|
E|-------------------2~~~0-2---|-----------------------------|

[Chorus] 
(Guitar 1)
e|-----------------------------|-----------------------------|
B|-----------------------------|-----------------------------|
G|-----------------------------|-----------------------------|
D|-----------------------------|-----------------------------|
A|-5-5---4-5-5---7-7-----------|-9-9---7-9-9---9-7-7---------|
E|-----------------------------|-----------------------------|

[Chorus] 
(Guitar 2)
e|--------------------------------|
B|--------------------------------|
G|--------------------------------|
D|-----7-------7-------7-------7--|
A|-7-9---9-7-9---9-7-9---9-7-9---9|
E|--------------------------------|

[Bridge]
e|-5-x-x-5-x-x-x-x-5-x-x-5-x-x-x-x|
B|-7-x-x-7-x-x-x-x-7-x-x-7-x-x-x-x|
G|-6-x-x-6-x-x-x-x-6-x-x-6-x-x-x-x|
D|--------------------------------|
A|--------------------------------|
E|--------------------------------|

[Pre-Chorus 2]
e|--------------------------------|
B|-7-x-x-7-x-x-x-x-7-x-x-7-x-x-x-x|
G|--------------------------------|
D|--------------------------------|
A|--------------------------------|
E|--------------------------------|

[Chorus] 
(Guitar 1)
e|-----------------------------|-----------------------------|
B|-----------------------------|-----------------------------|
G|-----------------------------|-----------------------------|
D|-----------------------------|-----------------------------|
A|-5-5---4-5-5---7-7-----------|-9-9---7-9-9---9-7-7---------|
E|-----------------------------|-----------------------------|

[Chorus] 
(Guitar 2)
e|--------------------------------|
B|--------------------------------|
G|--------------------------------|
D|-----7-------7-------7-------7--|
A|-7-9---9-7-9---9-7-9---9-7-9---9|
E|--------------------------------|
 
[Solo]
e|---------------|-------------|-----------|----------------------------------------------|
B|---------------|-------------|-----------|----------------------------------------------|
G|-w9/11---------|-------------|-----------|----------------------------------------------|
D|------------9-7|-------------|-7---------|----------------------------------------------|
A|---------------|9-----9-9-7-9|---7g9-7---|----2h4p2p0-----------------------------------|
E|---------------|-------------|---------9-|7\5---------2---------------------------------|

e|----------------------|------------------------|--------------|-------------------------|
B|----------------------|10~---------------------|10~-----------|-------------------------|
G|---------------9-9~---|-----11p9h11~----11p9h11|-------11-11~-|-----------------------12|
D|---------7-9-11-------|------------------------|--------------|-------------------------|
A|-----7-9--------------|------------------------|--------------|-------------------------|
E|-7-9------------------|------------------------|--------------|-------------------------|

e|-------------------------------------|--------------------------------------------------|
B|-12p10----12p10----12p10----12p10----|12p10----12p10------12p10----12p10----------------|
G|------11-9-----11-9-----11-9-----11-9|-----11-9-------11-9-----11-9-----11-9------------|
D|-------------------------------------|--------------------------------------------------|
A|-------------------------------------|--------------------------------------------------|
E|-------------------------------------|--------------------------------------------------|

e|-------------|-------|------------------------|-------------------------------|-----------|-|
B|-14~~-12-12~-|10-10~-|------------------------|9-9----10-10-----12-12-10-14-14|-14b15b14~-|-|
G|-------------|-------|----------------9-9-----|---9-9------11-11--------------|-----------|-|
D|-------------|-------|7-7---11-11-9-9----11-11|-------------------------------|-----------|-|
A|-------------|-------|----9-------------------|-------------------------------|-----------|-|
E|-------------|-------|------------------------|-------------------------------|-----------|-|

[Chorus] 
(Guitar 1)
e|-----------------------------|-----------------------------|
B|-----------------------------|-----------------------------|
G|-----------------------------|-----------------------------|
D|-----------------------------|-----------------------------|
A|-5-5---4-5-5---7-7-----------|-9-9---7-9-9---9-7-7---------|
E|-----------------------------|-----------------------------|

[Chorus] 
(Guitar 2)
e|--------------------------------|
B|--------------------------------|
G|--------------------------------|
D|-----7-------7-------7-------7--|
A|-7-9---9-7-9---9-7-9---9-7-9---9|
E|--------------------------------|


************************************

| x   Dead note
| g   Grace note
| h   Hammer-on
| p   Pull-off
| b   Bend
| /   Slide up
| \   Slide down
| ~   Vibrato
| w   Whammy

************************************

            
            
Suggest correction
Creating personal tab
Creating personal tab
You can edit any tab online and save it as your Personal.

You can edit, replace or remove any tab part or add personal notes – all changes will be seen only by you.

Personal tabs can be accessed anytime from any device, even offline.
Learn more »
Give kudos to tab author, rate the tab!
1 2 3 4 5
comments
print report bad tab
guest
You may want to rate the tab now too:
select rating
Wanna post a correction for this tab? Suggest correction