Oops, an error
Loading. Please wait.

Elle G Bass

763 views 1 this week
1 commentread comment
1 2 3 4 5
2 more votes to show rating
add to favorites
launch autoscroll
font size
0
reset
guitar tuner
×
Best way to learn
"Elle G"
Autoscroll
slow
fast
+/-
esc
set tempo
stop
#----------------------------------PLEASE NOTE---------------------------------#
#This file is the author's own work and represents their interpretation of the #
#song. You may only use this file for private study, scholarship, or research. #
#------------------------------------------------------------------------------#
#
Date: Sat, 20 Jan 1996 04:13:54 -0500 (EST)
From: "Jason M.R. Fallin" 
Subject: Newsboys, "Elle G." Bass Tab (fwd)



The following is bass tab for Elle G. By Newsboys recorded on GOING PUBLIC

------------------------------------------------------------------------

------------------------------------------------------------------------

---0--3--5--5--5--5--5--5--3--3--3--3--0--3\7--7--7--7--7--7--0--0--0--0

------------------------------------------------------------------------

That's the opening riff, it's played 4 or 5 times



-----------------------------------------------------------------------

-----------------------------------------------------------------------

--0--0--0--0--0--0--0--0--3--3--3--3--3--3--3--3--0--0--0--0--0--0--0--0

-----------------------------------------------------------------------


-----------------------------------------------------------------------

-----------------------------------------------------------------------

------------------------------------------------------------------------

--3--3--3--3--3--3--3--3-----------------------------------------------

This is between the opening and the chorus, right before the chorus the G 
is repeated an extra 8 beats for a total of 16



------------------------------------------------------------------------

------------------------------------------------------------------------

--0--0--0--0--0--0--0--0--5--5--5--5--5--5--5--5------------------------

--------------------------------------------------3--3--3--3--3--3--3--3-



--------------------------------------------------------------------------

--------------------------3--3--3--3--3--3--3--3-------------------------

--3--3--3--3--3--3--3--3-------------------------0--0--0--0--0--0--0--0--

-------------------------------------------------------------------------



------------------------------------------------------------------------

--3--3--3--3--3--3--3--3------------------------------------------------

------------------------------------------------------------------------

-----------------------------------------------------------------------

That is the chorus it usually repeats twice, at the end of the chorus it 
goes back into the intro riff, and then repeats the entire loop again.  
There is a little riff in the middle that I haven't figured out yet, but 
in term of the entire song it isn't incredibly important, you can work 
around it.

Any corrections, or chords (which would be great, tab would be even 
better), email me at aa105656@midnet.csd.scarolina.edu

"It's harder to believe than not to"  Flannery O' Connor




Suggest correction
Give kudos to tab author, rate the tab!
1 2 3 4 5
comments
print report bad tab
1 comment total.
0 reply
Jocepi 10 Feb 11, 2015 04:45 PM

I believe the little part in the middle goes like so:

-----------------------------------------------------------------------
-----------------------------------------------------------------------
---------5-7-8-11-10-11-----8-7---11-10-11-----------------------------
-------------------------3---------------------------------------------

this played twice.

guest
You may want to rate the tab now too:
select rating
Wanna post a correction for this tab? Suggest correction