Oops, an error
Loading. Please wait.

Gods Not Dead Bass Tab

18,207 views 15 this week
2 commentsread comments
1 2 3 4 5
x 14
add to favorites
launch autoscroll
font size
0
reset
guitar tuner
Autoscroll
slow
fast
+/-
esc
set tempo
stop
Help us to improve Ultimate-Guitar.com Take our survey!
×
Author
Difficulty
advanced
*fixed

Newsboys - God's Not Dead (Bass Tab) OFFICIAL


[Intro]
G|----------------------------------------|
D|--------------------------------------4-|
A|-----------------------------------5----|
E|444-4-44--222-2-22--777-7-77---6-7------|(x2)

[Verse 1]
(Hold Noes Longer)
G|--------------------------------------------------------------------------------------|
D|--------------------------------------------------------------------------------------|
A|11-11-11-11-11-11-11-9999999999-14-14-14-14-14-14-14-------------11-11-11-11-7777777/0|
E|------------------------------------------------------999999999-----------------------|


[Chorus]
[Fills]
G|---------------------------------------------------------------------------------|
D|----------------------(9999)-------------(999999)-----------------------(9999999)|
A|11-11-11-11-11-11-11---------9999999999--------------11-11-11-11-11-11-----------|
E|---------------------------------------------------------------------------------|

  Let Love Explode...
G|----------------------|
D|----------------------|
A|11---9----------------|
E|---------7---9---4---0|

   Now I'm Lost In Your freedom...
G|--------------------------------------------------------------------------|
D|--------------------------------------------------------------------------|
A|99999999-11-11-11-11-11-9-11-11-11-11-11-9999999-11-999999999-77777777/0|-|
E|--------------------------------------------------------------------------|

[Chorus]
[Fills]
G|---------------------------------------------------------------------------------|
D|----------------------(9999)-------------(999999)-----------------------(9999999)|
A|11-11-11-11-11-11-11---------9999999999--------------11-11-11-11-11-11-----------|
E|---------------------------------------------------------------------------------|

[Intro]
G|------------------------------------------------|
D|--------------------------------------4---------|
A|-----------------------------------5---------14h|
E|444-4-44--222-2-22--777-7-77---6-7--------------|(x2)

Now I'm Lost In Your freedom...
G|--------------------------------------------------------------------------|
D|--------------------------------------------------------------------------|
A|99999999-11-11-11-11-11-9-11-11-11-11-11-9999999-11-999999999-77777777/0|-|
E|--------------------------------------------------------------------------|

[Chorus]
[Fills]
G|---------------------------------------------------------------------------------|
D|----------------------(9999)-------------(999999)-----------------------(9999999)|
A|11-11-11-11-11-11-11---------9999999999--------------11-11-11-11-11-11-----------|
E|---------------------------------------------------------------------------------|

[Intro Part]

G|----------------------------------------|
D|--------------------------------------4-|
A|-----------------------------------5----|
E|444-4-44--222-2-22--777-7-77---6-7------|


[Intro Part]

G|---------------------|
D|---------------------|
A|---------------------|
E|444-4-44--222-2-22--7|


[Chorus]
[Fills]
G|---------------------------------------------------------------------------------|
D|----------------------(9999)-------------(999999)-----------------------(9999999)|
A|11-11-11-11-11-11-11---------9999999999--------------11-11-11-11-11-11-----------|
E|---------------------------------------------------------------------------------|(x2)

[Outro]
G|----------------------------------------|
D|--------------------------------------4-|
A|-----------------------------------5----|
E|444-4-44--222-2-22--777-7-77---6-7------|


G|--------------|
D|16-13-16------|
A|---------13-14|
E|--------------|


************************************

| /    Slide up
| (n)  Ghost note
| h    Hammer-on

************************************
Suggest correction
comments
print report bad tab
2 comments total.
+1 reply
nbs0727 12 Sep 09, 2014 12:28 PM

Nice tab! I think tho that he's performing this on a five string bass though because when when he hits the D in the intro the tone gets lower. Other than that, this tabs really accurate!

0 reply
CSUTremonti777 40 May 13, 2015 11:53 PM

I'm almost positive the intro is

G|--------------------------------3-4-----|X2
D|------------------------------------3-4-|
A|--------------------222-2-22------------|
E|444-4-44--222-2-22----------------------|

I know you can play the B on the 4th string but the timbre sounds more like he plays it on the 3rd string. Try it out and see how you think it sounds.

guest
You may want to rate the tab now too:
select rating
Wanna post a correction for this tab? Suggest correction