Oops, an error
Loading. Please wait.

Gods Not Dead Tab

version 1
version 1

Solo

Whole song

49,571 views 276 this week
5 commentsread comments
1 2 3 4 5
excellent!
x 43
add to favorites
launch autoscroll
font size
0
reset
how to read this tab
guitar tuner
Tab Pro tools
  • play this tab
  • loop segment
  • change instrument
  • show fretboard
  • metronome
×
Best way to learn
"Gods Not Dead"
Autoscroll
slow
fast
+/-
esc
set tempo
stop
Contributor
Difficulty
intermediate
 Newsboys - God's Not Dead (Tab)

   Intro --                                (Optional)vvv
e|--------------------------------------|------------------------|x4
B|777-------777-------------------------|-----------------------7| 
G|----888888----------------------------|3333333-4444444444444/--|
D|--------------888888-99999999999999---|------------------------| 
A|--------------------------------------|------------------------|
E|--------------------------------------|------------------------|

    Verse - 1
e|--------------------------------------| 
B|777-------777------------------------7|
G|----888888-------3333333-444444444/---|  
D|--------------------------------------| 
A|--------------------------------------|
E|--------------------------------------|


   Delayed
e|7H9--7H9----------|
B|----------5H7--5H7|
G|------------------|
D|------------------|
A|------------------|
E|------------------|


   Chorus - Rhythm
e|4444444444-2222222222-44444444|
B|4444444444-2222222222-44444444|
G|4444444444-2222222222-44444444|
D|6666666666-4444444444-66666666|
A|6666666666-4444444444-66666666|
E|4444444444-2222222222-44444444|



    Verse - 1
e|--------------------------------------| 
B|777-------777------------------------7|
G|----888888-------3333333-444444444/---|  
D|--------------------------------------| 
A|--------------------------------------|
E|--------------------------------------|



   Delayed
e|7H9--7H9----------|
B|----------5H7--5H7|
G|------------------|
D|------------------|
A|------------------|
E|------------------|


 Chorus - Rhythm
e|4444444444-2222222222-44444444|
B|4444444444-2222222222-44444444|
G|4444444444-2222222222-44444444|
D|6666666666-4444444444-44444444|
A|6666666666-4444444444-44444444|
E|4444444444-2222222222-44444444|



                                       (Optional)vvv
e|--------------------------------------|------------------------|x2
B|777-------777-------------------------|-----------------------7| 
G|----888888----------------------------|3333333-4444444444444/--|
D|--------------888888-99999999999999---|------------------------| 
A|--------------------------------------|------------------------|
E|--------------------------------------|------------------------|



  Chorus - Rhythm
e|4444444444-2222222222-44444444|x4
B|4444444444-2222222222-44444444|
G|4444444444-2222222222-44444444|
D|6666666666-4444444444-44444444|
A|6666666666-4444444444-44444444|
E|4444444444-2222222222-44444444|


e|--------------------------------------|------------------------|x3
B|777-------777-------------------------|-----------------------7| 
G|----888888----------------------------|3333333-4444444444444/--|
D|--------------888888-99999999999999---|------------------------| 
A|--------------------------------------|------------------------|
E|--------------------------------------|------------------------|


   ENDING
e|-----------|
B|7---7------|
G|--8--------|
D|--------8/9|
A|-----------|
E|-----------|
comments
print report bad tab
5 comments total. Showing first comments.
+1 reply
tylergop wrote on June 21 2013, 09:24 pm

Great song love it

+1 reply
IronLad97 wrote on September 1 2013, 11:51 am

Great tab, thanks a bunch

+2 reply
musicmaster9000 wrote on March 27 2014, 01:16 pm

Chorus doesn't sound right for some reason... 5*'s anyway

I want to post or [tab]
guest
You may want to rate the tab now too:
select rating
Please do not post tabs as comments. Select "correction" instead!