Oops, an error
Loading. Please wait.

Gods Not Dead Tab

version 1
version 1

Whole song

57,092 views 189 this week
6 commentsread comments
1 2 3 4 5
excellent!
x 48
add to favorites
launch autoscroll
font size
0
reset
how to read this tab
guitar tuner
Autoscroll
slow
fast
+/-
esc
set tempo
stop
Help us to improve Ultimate-Guitar.com Take our survey!
×
Author
Difficulty
intermediate
Newsboys - God's Not Dead.


[Intro]

e|---------------------------------------------------------------| 
B|7-7-7-------------7-7-7----------------------------------------| 
G|------8-8-8-8-8-8----------------------------------------------| 
D|------------------------8-8-8-8-8-8-9-9-9-9-9-9-9-9-9-9-9-9-9-9|
A|---------------------------------------------------------------|
E|---------------------------------------------------------------|

       (Optional)v v v
e|-------------------------------------------|
B|------------------------------------------7|
G|-3-3-3-3-3-3-3-4-4-4-4-4-4-4-4-4-4-4-4-4/--|
D|-------------------------------------------|
A|-------------------------------------------|
E|-------------------------------------------|(x4)


[Verse]

e|-----------------------------------------------------------| 
B|7-7-7-------------7-7-7-----------------------------------7|
G|------8-8-8-8-8-8-------3-3-3-3-3-3-3--4-4-4-4-4-4-4-4-4/--|  
D|-----------------------------------------------------------| 
A|-----------------------------------------------------------|
E|-----------------------------------------------------------|

(Delayed)
e|7h9--7h9----------|
B|----------5h7--5h7|
G|------------------|
D|------------------|
A|------------------|
E|------------------|


[Chorus]

(Rhythm)
e|4-4-4-4-4-4-4-4-4-4--2-2-2-2-2-2-2-2-2-2--4-4-4-4-4-4-4-4|
B|4-4-4-4-4-4-4-4-4-4--2-2-2-2-2-2-2-2-2-2--4-4-4-4-4-4-4-4|
G|4-4-4-4-4-4-4-4-4-4--2-2-2-2-2-2-2-2-2-2--4-4-4-4-4-4-4-4|
D|6-6-6-6-6-6-6-6-6-6--4-4-4-4-4-4-4-4-4-4--6-6-6-6-6-6-6-6|
A|6-6-6-6-6-6-6-6-6-6--4-4-4-4-4-4-4-4-4-4--6-6-6-6-6-6-6-6|
E|4-4-4-4-4-4-4-4-4-4--2-2-2-2-2-2-2-2-2-2--6-6-6-6-6-6-6-6|


[Verse]

e|-----------------------------------------------------------| 
B|7-7-7-------------7-7-7-----------------------------------7|
G|------8-8-8-8-8-8-------3-3-3-3-3-3-3--4-4-4-4-4-4-4-4-4/--|  
D|-----------------------------------------------------------| 
A|-----------------------------------------------------------|
E|-----------------------------------------------------------|

(Delayed)
e|7h9--7h9----------|
B|----------5h7--5h7|
G|------------------|
D|------------------|
A|------------------|
E|------------------|


[Chorus]

(Rhythm)
e|4-4-4-4-4-4-4-4-4-4--2-2-2-2-2-2-2-2-2-2--4-4-4-4-4-4-4-4|
B|4-4-4-4-4-4-4-4-4-4--2-2-2-2-2-2-2-2-2-2--4-4-4-4-4-4-4-4|
G|4-4-4-4-4-4-4-4-4-4--2-2-2-2-2-2-2-2-2-2--4-4-4-4-4-4-4-4|
D|6-6-6-6-6-6-6-6-6-6--4-4-4-4-4-4-4-4-4-4--4-4-4-4-4-4-4-4|
A|6-6-6-6-6-6-6-6-6-6--4-4-4-4-4-4-4-4-4-4--4-4-4-4-4-4-4-4|
E|4-4-4-4-4-4-4-4-4-4--2-2-2-2-2-2-2-2-2-2--4-4-4-4-4-4-4-4|

e|---------------------------------------------------------------| 
B|7-7-7-------------7-7-7----------------------------------------| 
G|------8-8-8-8-8-8----------------------------------------------| 
D|------------------------8-8-8-8-8-8-9-9-9-9-9-9-9-9-9-9-9-9-9-9|
A|---------------------------------------------------------------|
E|---------------------------------------------------------------|

       (Optional)v v v
e|-------------------------------------------|
B|------------------------------------------7|
G|-3-3-3-3-3-3-3-4-4-4-4-4-4-4-4-4-4-4-4-4/--|
D|-------------------------------------------|
A|-------------------------------------------|
E|-------------------------------------------|(x2)


[Chorus]

(Rhythm)
e|4-4-4-4-4-4-4-4-4-4--2-2-2-2-2-2-2-2-2-2--4-4-4-4-4-4-4-4|
B|4-4-4-4-4-4-4-4-4-4--2-2-2-2-2-2-2-2-2-2--4-4-4-4-4-4-4-4|
G|4-4-4-4-4-4-4-4-4-4--2-2-2-2-2-2-2-2-2-2--4-4-4-4-4-4-4-4|
D|6-6-6-6-6-6-6-6-6-6--4-4-4-4-4-4-4-4-4-4--4-4-4-4-4-4-4-4|
A|6-6-6-6-6-6-6-6-6-6--4-4-4-4-4-4-4-4-4-4--4-4-4-4-4-4-4-4|
E|4-4-4-4-4-4-4-4-4-4--2-2-2-2-2-2-2-2-2-2--4-4-4-4-4-4-4-4|(x4)

e|---------------------------------------------------------------| 
B|7-7-7-------------7-7-7----------------------------------------| 
G|------8-8-8-8-8-8----------------------------------------------| 
D|------------------------8-8-8-8-8-8-9-9-9-9-9-9-9-9-9-9-9-9-9-9|
A|---------------------------------------------------------------|
E|---------------------------------------------------------------|

e|-------------------------------------------|
B|------------------------------------------7|
G|-3-3-3-3-3-3-3-4-4-4-4-4-4-4-4-4-4-4-4-4/--|
D|-------------------------------------------|
A|-------------------------------------------|
E|-------------------------------------------|(x3)


[Outro]

e|-----------|
B|7---7------|
G|--8--------|
D|--------8/9|
A|-----------|
E|-----------|

************************************

| h  Hammer-on
| /  Slide up

************************************
Suggest correction
comments
print report bad tab
6 comments total. Showing first comments.
+1 reply
tylergop 10 wrote on June 21 2013, 09:24 pm

Great song love it

+1 reply
IronLad97 239 wrote on September 1 2013, 11:51 am

Great tab, thanks a bunch

+2 reply
musicmaster9000 10 wrote on March 27 2014, 01:16 pm

Chorus doesn't sound right for some reason... 5*'s anyway

guest
You may want to rate the tab now too:
select rating
Wanna post a correction for this tab? Suggest correction