Oops, an error
Loading. Please wait.

In Christ Alone Tab

version 2
version 2

Whole song

19,164 views 1 this week
3 commentsread comments
1 2 3 4 5
excellent!
x 9
add to favorites
launch autoscroll
font size
0
reset
how to read this tab
guitar tuner
Autoscroll
slow
fast
+/-
esc
set tempo
stop
Help us to improve Ultimate-Guitar.com Take our survey!
×
Difficulty
novice
Intro:
e|-3--3-2-h3-p2-|-3--3-2-h3-p2-------|-3--3-2-h3-p2-|
B|-------------3|-------------3------|-------------3|
G|--------------|---------------4---2|--------------|
D|--------------|--------------------|--------------|
A|--------------|--------------------|--------------|
E|--------------|--------------------|--------------|

e|-3--3-2-h3-p2-----------------| or:>|-3--3-2-h3-p2----------------|
B|-------------3----------------|    >|-------------3--3------------|
G|---------------4---2---0har12-|    >|--------------4---4-2--0har12|
D|------------------------------|    >|-----------------------------|
A|------------------------------|    >|-----------------------------|
E|------------------------------|    >|-----------------------------|

Verse 1.
e|------3--3-|------3--h5-|-5/7--5-3--7--5---3-3-|
B|-3--5h-----|-3--h5------|---------5------------|
G|-----------|------------|----------------------| 2X
D|-----------|------------|----------------------|
A|-----------|------------|----------------------|
E|-----------|------------|----------------------|

e|-----------|-----------|---3-2---------------|
B|---0--3-h5-|-5--3------|--------3/5--5-3-----|
G|-0---------|------4--2-|-2---------------4-2-|
D|-----------|-----------|---------------------|
A|-----------|-----------|---------------------|
E|-----------|-----------|---------------------|

e|----------|-----------|----------------------|
B|----------|-----------|----------------------|
G|------0-0-|------0-h2-|-h4-2-0---4--2----0-0-|
D|-0-h2-----|-0-h2------|--------2-------------|
A|----------|-----------|----------------------|
E|----------|-----------|----------------------|

Intro Interlude:
e|-3--3-2-h3-p2-|-3--3-2-h3-p2-------|-3--3-2-h3-p2-|
B|-------------3|-------------3------|-------------3|
G|--------------|---------------4---2|--------------|
D|--------------|--------------------|--------------|
A|--------------|--------------------|--------------|
E|--------------|--------------------|--------------|

e|-3--3-2-h3-p2-----------------| or:>|-3--3-2-h3-p2----------------|
B|-------------3----------------|    >|-------------3--3------------|
G|---------------4---2---0har12-|    >|--------------4---4-2--0har12|
D|------------------------------|    >|-----------------------------|
A|------------------------------|    >|-----------------------------|
E|------------------------------|    >|-----------------------------|

Verse 2.
e|------3--3-|------3--h5-|-5/7--5-3--7--5---3-3-|
B|-3--5h-----|-3--h5------|---------5------------|
G|-----------|------------|----------------------| 2X
D|-----------|------------|----------------------|
A|-----------|------------|----------------------|
E|-----------|------------|----------------------|

e|-----------|-----------|---3-2---------------|
B|---0--3-h5-|-5--3------|--------3/5--5-3-----|
G|-0---------|------4--2-|-2---------------4-2-|
D|-----------|-----------|---------------------|
A|-----------|-----------|---------------------|
E|-----------|-----------|---------------------|

e|----------|-----------|----------------------|
B|----------|-----------|----------------------|
G|------0-0-|------0-h2-|-h4-2-0---4--2----0-0-|
D|-0-h2-----|-0-h2------|--------2-------------|
A|----------|-----------|----------------------|
E|----------|-----------|----------------------|


Verse Interlude:
e|-7--7--7--7-h8-7-|-5--5--5--5-h6-5-|-3--3--3--|
B|--8--8--8--------|--6--6--6--------|--5--5--5-|
G|---7--7--7-------|---5--5--5-------|---5--5--5| 2X
D|-----------------|-----------------|----------|
A|-----------------|-----------------|----------|
E|-----------------|-----------------|----------|

Verse 3.
e|----------|-----------|----------------------|
B|----------|-----------|----------------------|
G|------0-0-|------0-h2-|-h4-2-0---4--2----0-0-| 2X
D|-0-h2-----|-0-h2------|--------2-------------|
A|----------|-----------|----------------------|
E|----------|-----------|----------------------|

e|-----------|-----------|---3-2---------------|
B|---0--3-h5-|-5--3------|--------3/5--5-3-----|
G|-0---------|------4--2-|-2---------------4-2-|
D|-----------|-----------|---------------------|
A|-----------|-----------|---------------------|
E|-----------|-----------|---------------------|

e|----------|-----------|----------------------|
B|----------|-----------|----------------------|
G|------0-0-|------0-h2-|-h4-2-0---4--2----0-0-|
D|-0-h2-----|-0-h2------|--------2-------------|
A|----------|-----------|----------------------|
E|----------|-----------|----------------------|

Verse Interlude:
e|-7--7--7--7-h8-7-|-5--5--5--5-h6-5-|-3--3--3--|
B|--8--8--8--------|--6--6--6--------|--5--5--5-|
G|---7--7--7-------|---5--5--5-------|---5--5--5| 2X
D|-----------------|-----------------|----------|
A|-----------------|-----------------|----------|
E|-----------------|-----------------|----------|

Verse 4.
e|----------|-----------|----------------------|
B|----------|-----------|----------------------|
G|------0-0-|------0-h2-|-h4-2-0---4--2----0-0-| 2X
D|-0-h2-----|-0-h2------|--------2-------------|
A|----------|-----------|----------------------|
E|----------|-----------|----------------------|

e|-----------|-----------|---3-2---------------|
B|---0--3-h5-|-5--3------|--------3/5--5-3-----|
G|-0---------|------4--2-|-2---------------4-2-|
D|-----------|-----------|---------------------|
A|-----------|-----------|---------------------|
E|-----------|-----------|---------------------|

e|----------|-----------|----------------------|
B|----------|-----------|----------------------|
G|------0-0-|------0-h2-|-h4-2-0---4--2----0-0-|
D|-0-h2-----|-0-h2------|--------2-------------|
A|----------|-----------|----------------------|
E|----------|-----------|----------------------|

Intro:
e|-3--3-2-h3-p2-|-3--3-2-h3-p2-------|-3--3-2-h3-p2-|
B|-------------3|-------------3------|-------------3|
G|--------------|---------------4---2|--------------|
D|--------------|--------------------|--------------|
A|--------------|--------------------|--------------|
E|--------------|--------------------|--------------|

e|-3--3-2-h3-p2-----------------| or:>|-3--3-2-h3-p2----------------|
B|-------------3----------------|    >|-------------3--3------------|
G|---------------4---2---0har12-|    >|--------------4---4-2--0har12|
D|------------------------------|    >|-----------------------------|
A|------------------------------|    >|-----------------------------|
E|------------------------------|    >|-----------------------------|

This tab is plain enough to have fun with it, so add your own flare :)
The "har" means to (lightly) tap/touch the harmonic note shown in the tab.
This is a basic run of the song:

-Intro-
----------Verse 1.\
-Intro-(interlude) } these two verses play the same way
----------Verse 2./
-Verse interlude-
----------Verse 3.\
-Verse interlude-  } these two verses play the same way
----------Verse 4./
-Intro-(interlude)-fade out
Suggest correction
comments
print report bad tab
3 comments total.
0 reply
DeangeloHawkins 21 wrote on February 27 2014, 02:52 pm

This tab is fantastic! Thanks for the work

0 reply
scottew7 10 wrote on March 27 2014, 09:21 pm

How do I play 0har12?

0 reply
scottew7 10 wrote on March 27 2014, 09:21 pm

How do I play 0har12

guest
You may want to rate the tab now too:
select rating
Please do not post tabs as comments. Select "correction" instead!